Bach - Badineri Chords & Tabs

 

Badineri Chords & Tabs

Bach Chords & Tabs

Version: 1 Type: Tab 2 ratings
1 star 2 stars 3 stars 4 stars 5 stars
comments

Badineri Tab

   
#----------------------------------PLEASE NOTE---------------------------------#
#This file is the author's own work and represents their interpretation of the #
#song. You may only use this file for private study, scholarship, or research. #
#------------------------------------------------------------------------------##

                                    BADINERIE
                            As recorded by J.S. Bach
           (From the 2000 Album ORCHESTRAL SUITE NÂș2 IN BM - BWV 1067)

Music by Bach
Arranged by TheShadow
Transcribed by TheShadow

Gtr I (E A D G B E) - 'BADANERIE'

   Verse
    Q=128
    Bm
   2/4

    Gtr I
    S S  S S  S S S  S   S S  S S Q    S S S S S S S S   S S S S E E
||--7---10p7------7----|-------------|-----------------|-------------|
||o--------------------|-------------|-----------------|-------------|
||-----------11-----11p|=7---11p7----|---4-7-4-6-4-6-4-|---6-9-6-7---|
||---------------------|----------9--|-4---------------|-8---------9-|
||o--------------------|-------------|-----------------|-------------|
||---------------------|-------------|-----------------|-------------|


  S S  S S  S S S  S   S S  S S Q    S S S S S T T T +S.   S S S S E E
|-7---10p7------7----|-------------|---------------------|-7------------|
|--------------------|-------------|---------------------|--------------|
|----------11-----11p|=7---11p7----|-7---7---7h9p7s6-(6)-|-----7---7-6--|
|--------------------|----------9--|---------------------|--------------|
|--------------------|-------------|---------------------|--------------|
|--------------------|-------------|---------------------|--------------|


                                      Bridge
  S S S S S T T T +S.    S S S S E E   S S S S S S S S   S S S S S S S S
|---------------------|-10-----------|---2-5-2-4-2-4p2-|---4-7-4-5p4-5p4-|
|-7---7---7h8p7s6-(6)-|------7---7-6-|-2---------------|-6---------------|
|---------------------|--------------|-----------------|-----------------|
|---------------------|--------------|-----------------|-----------------|
|---------------------|--------------|-----------------|-----------------|
|---------------------|--------------|-----------------|-----------------|


  S S S S S S S S   S S S S S  S S S  S  S S S S  S S S    E  T  T T  T  E E
|---5-------7-----|---9-------10-----|---10-9-7-9--------|---------------------||
|-7---7-6-7---7-6-|-7---7-6-7----7-6-|-7----------10-9-7-|-10--9h10p9h10--7---o||
|-----------------|------------------|-------------------|---------------------||
|-----------------|------------------|-------------------|---------------------||
|-----------------|------------------|-------------------|--------------------o||
|-----------------|------------------|-------------------|---------------------||

   Verse
    F#m
    S S S S S S S S   S S S S Q    E E E S S    E S S E E   S S S S S S S S
||--2---5-2-----2---|------------|-----------|------------|-3---7-3-----3----|
||o-----------------|------------|-----5p4-7-|-10-8-7-8---|---------5-----5--|
||----------6-----6-|-2---6-2----|-5p4-------|----------9-|------------------|
||------------------|---------4--|-----------|------------|------------------|
||o-----------------|------------|-----------|------------|------------------|
||------------------|------------|-----------|------------|------------------|


  S S S S Q    S S  S S S S S S
|------------|------------------|
|-----5------|------------------|
|-6-----6----|---7-11-7-9-7-9-7-|
|---------7--|-7----------------|
|------------|------------------|
|------------|------------------|

[ Tab from: http://www.guitartabs.cc/tabs/b/bach/badineri_tab.html ]
   S S  S S  S S  S S    S  S  S  S  S  S  S  S
|---------------------|-------------------------|
|---------------------|-------------------------|
|----9-12-9-11p9-11p9-|----11----------12-------|
|-11------------------|-12----12-11-12----12-11-|
|---------------------|-------------------------|
|---------------------|-------------------------|


   S  S  S  S  S  S  S  S    S  S  S  S  S  S  S  S
|-------------------------|-------------------------|
|-------------------------|-------------------------|
|----14----------16-------|----16-14-12-14----------|
|-12----12-11-12----12-11-|-12-------------16-14-12-|
|-------------------------|-------------------------|
|-------------------------|-------------------------|


                    ~~
   S S  T  T  T  T  Q      S S  E  S S  E
|----------------------||-----------------|
|----------------------||-----------------|
|----------------------||-11p9-11-11p9-11-|
|-16---14p12h14p12-12--||-----------------|
|----------------------||-----------------|
|----------------------||-----------------|


   S S S S T T T T S S   S S E S S E
|-10-------------------|-------------|
|------7---7h8p7h8-5---|-------------|
|----------------------|-9p7-9-9p7-9-|
|----------------------|-------------|
|----------------------|-------------|
|----------------------|-------------|


                           |-3--|
  S S S S T  T T  T E   E  S S  s Q   +E   T  T T  T Q
|-9-------------------|-7-10-7------|-------------------|
|---------------------|--------10-8-|-(8)-12p10p8-------|
|-----9---9h11p9h11-7-|-------------|-------------11p9--|
|---------------------|-------------|-------------------|
|---------------------|-------------|-------------------|
|---------------------|-------------|-------------------|


  E T T T T S S S S   S S S S S S S S
|-------------------|-----------------|
|---8-7p5-----5-8-5-|-----------------|
|---------7p5-------|-5p4-5p4-3-------|
|-------------------|-------------4---|
|-------------------|-----------------|
|-------------------|-----------------|


  E E E E   S S S S S S S S   S S S S S  S S S
|---------|-----------------|---2---2-7--2------|
|---------|-2-5-3-2-3---2-3-|-5---3--------5-3--|
|-----4p3-|-----------4-----|-------------------|
|-5p4-----|-----------------|-------------------|
|---------|-----------------|-------------------|
|---------|-----------------|-------------------|


  1.          2.
                         Bm
  S S Q E     S S Q.     +H
|----------||----------|-------*|
|-2-3-----o||-2-3------|-------*|
|-----4----||-----4----|-(4)---*|
|----------||----------|-------*|
|---------o||----------|-------*|
|----------||----------|-------*|


Duration Legend
---------------
W - whole; H - half; Q - quarter; E - 8th; S - 16th; T - 32nd; X - 64th; a - acciaccatura
+ - note tied to previous; . - note dotted; .. - note double dotted
Uncapitalized letters represent notes that are staccato (1/2 duration)
Irregular groupings are notated above the duration line
Duration letters will always appear directly above the note/fret number it represents the
duration for.  Duration letters with no fret number below them represent rests.  Multi-
bar rests are notated in the form Wxn, where n is the number of bars to rest for.  Low
melody durations appear below the staff

Tablature Legend
----------------
 h   - hammer-on
 p   - pull-off
 b   - bend
 pb  - pre-bend
 r   - bend release (if no number after the r, then release immediately)
 /\  - slide into or out of (from/to "nowhere")
 s   - legato slide
 S   - shift slide
  - natural harmonic
[n]  - artificial harmonic
n(n) - tapped harmonic
 ~   - vibrato
 tr  - trill
 T   - tap
 TP  - trem. picking
 PM  - palm muting
\n/  - tremolo bar dip; n = amount to dip
 \n  - tremolo bar down
 n/  - tremolo bar up
/n\  - tremolo bar inverted dip
 =   - hold bend; also acts as connecting device for hammers/pulls
   - volume swell (louder/softer)
 x   - on rhythm slash represents muted slash
 o   - on rhythm slash represents single note slash

Misc Legend
-----------
 |  - bar
||  - double bar
||o - repeat start
o|| - repeat end
*|  - double bar (ending)
 :  - bar (freetime)
 $  - Segno
 &  - Coda
Tempo markers -  = BPM(8/16=s8/s16), where s8 = swing 8ths, s16 = swing 16ths
Comments