Babyshambles - Sticks And Stones Chords & Tabs

 

Sticks And Stones Chords & Tabs

Babyshambles Chords & Tabs

Version: 1 Type: Tab

Sticks And Stones Tab

   
best choon on that album

the intro is high bass and an acoustic picking the high notes in the following chords

Bm, G, E, F#m (yes that is the verse of "France")

louder bit

e----------------|
b----------------|
g----------------|
d----------------|
a----------------|
E-8-10---3-2-7---|

for the reggae verse bit play these chords below

e-3
b-5
g-4  x6
d-5
a-x
e-x

and

e-7
b-7
g-7
d-9  x6
a-x
e-x

at various times walden throws this in after the chord strums

e-2-3-2-3-2------|
b-----------3----|
g----------------|
d----------------|
a----------------|
E----------------|


then more of the verse chords, followed by the main riff below
[ Tab from: http://www.guitartabs.cc/tabs/b/babyshambles/sticks_and_stones_tab.html ]
e-15----------------------------------------14------|
b------17-----------------------------15------------|
g-----------16----14---16-16-16---------------------|
d---------------------------------------------------|
a---------------------------------------------------|
E---------------------------------------------------|


then twice in the song, including the outro there is a breakdown

e----------------------------------------------------------------------|
b----------------------------------------------------------------------|
g---------------------------------------------------9-10-9-------------|
d----------------------------------------------------------10-9-10-10--|
a--7-7-7-7--5-5-5-5---3-3-3-3--2-2-2-2-----2-2-2-----------------------|
E----------------------------------------------------------------------|

and thats it

tabbed by Stu

www.myspace.com/stu_f

rakes/cribs/boysintheband forums