Babyshambles - Man Who Came To Stay Chords & Tabs

 

Man Who Came To Stay Chords & Tabs

Babyshambles Chords & Tabs

Version: 1 Type: Tab 0 ratings
1 star 2 stars 3 stars 4 stars 5 stars
comments

Man Who Came To Stay Tab

   
Band: Babyshambles
Song: The Man Who Came To Stay (Intro)
Album: B-side on Killamangiro Single
Tuning: Normal-E A D G B E
Tabbed by James Morris
Date: 19.03.05

This is a great B-side, probably better than the A-side so when I first heard it I
wanted to learn it but no-one else had tabbed it so I set about tabbing it myself.
I have only managed to tab the intro so far, but when I figure out the rest of the
song I will tab that aswell.

Bass Intro

G|-------------------------------|
D|-------------------------------|
A|-5-5-5-5-5-5-5-5-5-5-5-5-5-5-5-| Plays this a few times then
E|-------------------------------|

G|-------------------------------|
D|-------------------------------|
A|-5-5-5-5-5-5-5-5-5-5-5-5-0-3-4-| 
E|-------------------------------|

The guitar then enters (Bass repeats intro)
PM-----   --     --   ---- ---   --
E|-----10---10-10--10-----5---5-5---5-|
B|------9----9--9---9-----4---4-4---4-|
G|------7----7--7---7-----2---2-2---2-|
D|-0-0--0-0--0--0-0-0-0-0-0-0-0-0-0-0-| x2
A|------------------------------------|
E|------------------------------------|

Then

E|-----------------------------|
B|-----------------------------|
G|-----------------------------|
D|-----------------------------| x2
A|--0-11-0-9-0-7-0-4-0-2/4/2-0-|
E|-----------------------------|

The Bass Plays
[ Tab from: http://www.guitartabs.cc/tabs/b/babyshambles/man_who_came_to_stay_tab.html ]
G|-------------------------------------------------|
D|-------------------------------------------------|
A|/12-12-12-12-12-12-12-12-12-12-12-12-12-12-12-12-| x2
E|-------------------------------------------------|

Play this whole cycle 3 times then of the fourth you play

PM-----   --     --   ---- ---   --
E|-----10---10-10--10-----5---5-5---5-|
B|------9----9--9---9-----4---4-4---4-|
G|------7----7--7---7-----2---2-2---2-|
D|-0-0--0-0--0--0-0-0-0-0-0-0-0-0-0-0-| 
A|------------------------------------|
E|------------------------------------|


PM-----   --     --   ---- ---   --
E|-----10---10-10--10----14--15--17---|
B|------9----9--9---9----13--14--16---|
G|------7----7--7---7----11--12--14---|
D|-0-0--0-0--0--0-0-0-0-0-0-0-0-0-0-0-| 
A|------------------------------------|
E|------------------------------------|

Then

E|-----------------------------|
B|-----------------------------|
G|-----------------------------|
D|-----------------------------| 
A|--0-11-0-9-0-7-0-4-0-2/4/2-0-|
E|-----------------------------|

Then

E|-----------------------------|
B|-----------------------------|
G|-----------------------------|
D|-----------------------------| x2
A|--0-11-0-9-0-0/12------------|
E|-----------------------------|

The Bass Plays

G|-------------------------------|
D|-------------------------------|
A|-0-0-0-0-0-0-0-0-0-0-0-0-0-0-0-| 
E|-------------------------------|

Then

G|-------------------------------|
D|-------------------------------|
A|-0-0-0-0-0-0-0-/12-------------| 
E|-------------------------------|

That's as far as I've got. Please rate, comment and (if necessary) correct.

Thanks. Enjoy.
Comments