Babyshambles - In Love With A Feeling Chords & Tabs

 

In Love With A Feeling Chords & Tabs

Babyshambles Chords & Tabs

Version: 2 Type: Tab

In Love With A Feeling Tab

   
  Band:Babyshambles
  Song:In Love With a Feeling
  Album:Down in Albion

intro

e-3-3----------------3--3----|
b-2--1---1-----------1-1---1-|
g-0---0--1-1-3h-3p1------0-1-|
d-2----2-2----------2------2-|
a-3------3-----------------3-|
e----------------------------|


  They would if they could, but they can't
e-3----------------------------------------|
b-1----------------------------------------|
g-0----------------------------------------|
d-2----------------------------------------|
a-3----------------------------------------|
e------------------------------------------|
So if they talk like they could
e-------------------------1----|
b-------------------------3----|
g-------------------------2----} Dm
d------------------------------|
a------------------------------|
e------------------------------|
Are you going to heed a word they say,All I'm trying to say was
e-----------------3-3-------------------|
b----------------3----------------------|
g---------------------------------------}G
d---------------------------------------|
a---------------------------------------|
e---------------------------------------|

  I'm in love with a feeling
e-8---8--8-----------5------|
b-8---8--8-----------5------|
g-9---9--9----8----7-6------|
d-10--10-10---9----8-7------|
a-------------9----8-7------|
e-------------7----6-5------|
  I know that it shows
e-5--------------5----5-5-5--4-3-3-|
b-5--------------6----6-6-6--5-5-3-|
g-6--------------7----7-7-7--4-5-4-|
d-7--------------7----7-7-7--6-5-5-|
a-7--------------------------4-3-5-|
e-5------------------------------3-|
Yes I'm in love with a feeling
e---3---3--3----2----1---------|
b---3---3--3----2----1---------|
g---4---4--4----3----2-1-------|
d---5---5--5----2----1-2-------|
a---5---5--5----4----3-2-------|
e---------------4----1-0-------|
And I don't care who knows
e--------------------5-----|
b--------------------5-----|
g--------------------6-----|
d--------------------5-----|
a--------------------7-----|
e--------------------5-----|

[ Tab from: http://www.guitartabs.cc/tabs/b/babyshambles/in_love_with_a_feeling_tab_ver_2.html ]
the chorus is just pretty much useing these 3 notes:
e-0-7-10-|
b--------}it sounds best if you pitch harmonic these notes, to pich harmonic
g--------|hold you finger at the very point of the plectrum and as you strum
down let the tip of your thumb slightly touch the string. this takes a while
to get use to, if you cant wait just move your "wah bar" with each note and
it should sound fine. the two end notes of the chorus are:
e-3-4
b-3-4
g-4-5
d-5-6
a-5-6
e-3-4

then it is just back to the verse which is very much the same as the last verse.
after the chorus just before the bridge it is just the chord change C to G.

the bridge

I'm still waiting for you to show me fire
e---------------------0-----------------|
b---------------------1-----------------|
g---------------------0-----------------|
d---------------------2-----------------|
a---------------------3-----------------|
e---------------------------------------|
  Oh how's your fever
e-0-------------------1-|
b-1-------------------1-|
g-1-------------------2-|
d-2-------------------3-|
a-3-------------------3-|
e---------------------1-|
Like an open book,Oh you can read me
e-----------------1-----------------|
b-----------------1-----------------|
g-----------------1-----------------|
d-----------------3-----------------|
a-----------------3-----------------|
e-----------------1-----------------|

the rest is jsut these 2 chords:
e-0-0-|
b-1-1-|
g-0-1-|
d-2-2-|
a---3-|
e-----|

now there is 1 more verse before the ending. the ending is:

Because of his hob knob
e---------------------|
b-2-------------------|
g-3-------------------|
d-4-------------------|
a-4-------------------|
e---------------------|
Ohh la la, I think love was a dirty word
e---------------------|
b-2-------------------|
g-3-------------------|
d-4-------------------|
a-4-------------------|
e---------------------|
Love all the time
e---------------------|
b-2-------------------|
g-3-------------------|
d-4-------------------|
a-4-------------------|
e---------------------|
Only in a friendly way
e---------------------|
b-2-------------------|
g-3-------------------|
d-4-------------------|
a-4-------------------|
e---------------------|
  Not too friendly, not too friendly
e-1-----------------0----------------|
b-1-----------------2----------------|
g-2-------1---------2----------------|
d-1-------2---------2----------------|
a-3-------2---------0----------------|
e-1-------0--------------------------|

thats it. please comment and vote, im pretty sure it is mostly like but you know what
pat's guitaring is like, good but....odd.  anyway good luck in cort tomorrow pete and
peace out. robert (i love Lizzie Wilson) loustau
PETE DOHERTY IS INNOCENT(but pleed guilty tomorrow because you will serve less time)