Babyshambles - Black Boy Lane Chords & Tabs

 

Black Boy Lane Chords & Tabs

Babyshambles Chords & Tabs

Version: 1 Type: Tab 0 ratings
1 star 2 stars 3 stars 4 stars 5 stars
comments

Black Boy Lane Tab

e--------------------------------------------------------------------|
B--------------------------------------------------------------------|
G--------------------------------------------------------------------|
D--------------------------------------------------------------------|
A------------5----------------5-------------------10-----------------|
E--5-555-555---55-5-5-5-555-5---10-10-10-10-10-10--------------------|

Or whatever,

Then just do the chord thing.
[ Tab from: http://www.guitartabs.cc/tabs/b/babyshambles/black_boy_lane_tab.html ]
e--------------------------------------------------------------------|
B--------------------------------------------------------------------|
G--------------7----------------------------12-----------------------|
D--7-7-7-7-7-7-7----------12-12-12-12-12-12-12-----------------------|
A--7-7-7-7-7-7-5----------12-12-12-12-12-12-10-----------------------|
E--5-5-5-5-5-5------------10-10-10-10-10-10--------------------------|

e--------------------------------------------------------------------|
B--------------------------------------------------------------------|
G---9--7-------------------------------------------------------------|
D---9--7--9-7--------------------------------------------------------|
A---7--5--9-7---and so on and so on and then back to the normal bit -|
E---------7-5--------------------------------------------------------|

It's not my song and it's pretty much improvised so i take no credit, do what you like.
Comments