Babyshambles - Black Boy Lane Chords & Tabs

 

Black Boy Lane Chords & Tabs

Babyshambles Chords & Tabs

Version: 1 Type: Bass Tab 0 ratings
1 star 2 stars 3 stars 4 stars 5 stars
comments

Black Boy Lane Bass Tab

   
-------------------------------------------------------------------------------
			     Black Boy Lane - Babyshambles
-------------------------------------------------------------------------------

Tabbed By : Peter Hollingsowrth
e-mail: Peterhh27@hotmail.com 

Tuning:EADG

Intro: Guitar: Two plays of riff one, then drum fill into bass and drums. 

G|---------------------------------------------------------------------------|
D|---------------------------------------------------------------------------|
A|-0-0-0-0-3-0-5-5-0-0-0-0-3-0-5-5-0-0-0-0-3-0-5-5-0-0-0-0-3-0-5-5-----------|
E|---------------------------------------------------------------------------|

G|---------------------------------------------------------------------------|
D|---------------------------------------------------------------------------|
A|-0-0-0-0-3-0-5-5-0-0-0-0-3-0-5-5-------------------------------------------|
E|---------------------------------------------------------------------------|

G|---------------------------------------------------------------------------|
D|-0-0-0-0-3-0-5-5-0-0-0-0-3-0-5-5-------------------------------------------|
A|---------------------------------0-0-0-0-3-0-5-5-0-0-0-0-3-0-5-5-----------|
E|---------------------------------------------------------------------------|

G|---------------------------------------------------------------------------|
D|-3-3-3-2-2-2-------------3-3-3-2-2-2---------------------------------------|
A|-------------5-5-5-3-3-3-------------5-5-5-3-3-3-7-7-7-7-7-7-7-7-7-7-------|
E|---------------------------------------------------------------------------|

G|---------------------------------------------------------------------------|
D|---------------------------------------------------------------------------|
A|-0-0-0-0-3-0-5-5-0-0-0-0-3-0-5-5-0-0-0-0-3-0-5-5-0-0-0-0-3-0-5-5-----------|
E|---------------------------------------------------------------------------|

G|---------------------------------------------------------------------------|
D|---------------------------------------------------------------------------|
A|-0-0-0-0-3-0-5-5-0-0-0-0-3-0-5-5-------------------------------------------|
E|---------------------------------------------------------------------------|
[ Tab from: http://www.guitartabs.cc/tabs/b/babyshambles/black_boy_lane_btab.html ]
G|---------------------------------------------------------------------------|
D|---------------------------------0-0-0-0-3-0-5-5-0-0-0-0-3-0-5-5-----------|
A|-0-0-0-0-3-0-5-5-0-0-0-0-3-0-5-5-------------------------------------------|
E|---------------------------------------------------------------------------|

G|---------------------------------------------------------------------------|
D|---------------------------------------------------------------------------|
A|-0-0-0-0-3-0-5-5-0-0-0-0-3-0-5-5-------------------------------------------|
E|---------------------------------------------------------------------------|

G|---------------------------------------------------------------------------|
D|-3-3-3-2-2-2-------------3-3-3-2-2-2---------------------------------------|
A|-------------5-5-5-3-3-3-------------5-5-5-3-3-3-7-7-7-7-7-7-7-7-7-7-------|
E|---------------------------------------------------------------------------|

  Guitar Solo
G|---------------------------------------------------------------------------|
D|---------------------------------------------------------------------------|
A|-0-0-0-0-3-0-5-5-0-0-0-0-3-0-5-5-0-0-0-0-3-0-5-5-0-0-0-0-3-0-5-5-----------|
E|---------------------------------------------------------------------------|

G|---------------------------------------------------------------------------|
D|---------------------------------------------------------------------------|
A|-0-0-0-0-3-0-5-5-0-0-0-0-3-0-5-5-------------------------------------------|
E|---------------------------------------------------------------------------|

G|---------------------------------------------------------------------------|
D|-0-0-0-0-3-0-5-5-0-0-0-0-3-0-5-5-------------------------------------------|
A|---------------------------------0-0-0-0-3-0-5-5-0-0-0-0-3-0-5-5-----------|
E|---------------------------------------------------------------------------|

  Last Chorus (Coda)
G|---------------------------------------------------------------------------|
D|-3-3-3-2-2-2-------------3-3-3-2-2-2---------------------------------------|
A|-------------5-5-5-3-3-3-------------5-5-5-3-3-3-7-7-7-7-7-7-7-7-7-7-------|
E|---------------------------------------------------------------------------|

G|---------------------------------------------------------------------------|
D|---------------------------------------------------------------------------|
A|-7-7-7-7-7-7-7-7-7-7-7-7-0-------------------------------------------------|
E|---------------------------------------------------------------------------|



| /  slide up
| \  slide down
| h  hammer-on
| p  pull-off
| ~  vibrato
| +  harmonic
| x  Mute note
===============================================================================
Comments