Babyface - Nobody Knows It But Me Chords & Tabs

 

Nobody Knows It But Me Chords & Tabs

Babyface Chords & Tabs

Version: 1 Type: Chords 0 ratings
1 star 2 stars 3 stars 4 stars 5 stars
comments

Nobody Knows It But Me Chords

   
Im tabing this song because I couldnt find it on the internet
so here it is.

LISTEN TO THE CD TO GET THE RHYTHM IT SHOULD BE EASY,

Tuning: 1 step down
By: Jocke Hartsa

Artist: Babyface

Verse:
    G                  D                E                      D
e------3--3------3--------3--2-----2----------3--3--------3--------3--2----2-|
B------3--3------3--------3--3-----3----------3--3--------3--------3--3----3-|
G------0--0------0--------2--2-----2----------0--0--------0--------2--2----2-|
D----------------------0----------------------------------------0------------|
A----------------------------------------------------------------------------|
E--3---------3----------------------------0-----------0----------------------|


     G        D        E      C
e----3--------2--------3------3---------------------------------------------|
B----3--------3--------3------3---------------------------------------------|
G----0--------2--------0------0---------------------------------------------|
D----0--------0--------2------2---------------------------------------------|
A----2--------x--------2------3---------------------------------------------|
E----3--------x--------0------x---------------------------------------------|

Wish I told her how I feel,
Maybe she'd be here right now...


G                   D
I pretend that I'm glad you went away
E                          D
These four walls closing more every day
          C
And I'm dying inside
     D                  G
And nobody knows it but me

G              D
[ Tab from: http://www.guitartabs.cc/tabs/b/babyface/nobody_knows_it_but_me_crd.html ]
G               D
Like a clown I put on a show
E                         D
The pain is real even if nobody knows
          C
And I'm crying inside
     D                  G
And nobody knows it but me

Why didn't I say the things I needed to say
How could I let my angel get away
Now my world is just a-tumblin' down
I can say it so clearly but you're nowhere around

The nights are lonely the days are so sad and
I just keep thinking about the love that we had
And I'm missing you
And nobody knows it but me

I carry a smile when I'm broken in two
And I'm nobody without someone like you
I'm trembling inside
And nobody knows it but me (yeah)

I lie awake, it's a quarter past three
I'd scream out at night if I thought you'd hear me
Yeah, my heart is calling you
And nobody knows it but me

How blue can I get?
You could ask my heart
But like a jigsaw puzzle it's been torn all apart
A million words couldn't say just how I feel
A million years from now you know I'll be loving you still

The nights are lonely the days are so sad and
I just keep thinking about the love that we had
And I'm missing you
And nobody knows it but me

Tomorrow morning
I'm hittin the dusty road
Gonna find you where ever
Ever you might go
And I'm gonna unload my heart
And hope you come back to me

Say when the nights are lonely
The nights are lonely the days are so sad and
I just keep thinking about the love that we had
And I'm missing you
And nobody knows it but me

The nights are lonely the days are so sad and
I just keep thinking about the love that we had
And I'm missing you
And nobody knows it but me

The nights are lonely the days are so sad and
I just keep thinking about the love that we had
And I'm missing you
And nobody knows it but me
Comments