Babes In Toyland - Say What You Want Chords & Tabs

 

Say What You Want Chords & Tabs

Babes In Toyland Chords & Tabs

Version: 1 Type: Tab 0 ratings
1 star 2 stars 3 stars 4 stars 5 stars
comments

Say What You Want Tab

   
I just figured out this song ... It is NOT as hard as it sounds. Not nearly. Just
don't play it with too much distortion, and you'll be fine.

SAY WHAT YOU WANT
BABES IN TOYLAND

Intro
e|-------------|
B|-12-12-12-12-|
G|-12-12-12-12-|
D|-------------|
A|-------------|
E|-------------|

Just play that as needed ... Listen to the song for the rythym, it's very distinctive.

Verse
e|--------------------:|
B|--------------------:|
G|---3---3---3---4----:|
D|---4---4---4---5----:|
A|---4---4---4---5----:|
E|-0-2--02--02--03-000:|
 pm.    .   .   .  ...

This is returned to throughout the song, and doesn't have to be played perfect.
You don't have to always palm mute the open E, etc. I find that this song sounds
pretty good if it's played a bit sloppily.

Chorus
e|------------:|
B|------------:|
G|------------:|
D|-22222-8-7~~:|
A|-22222-8-7~~:|
E|-00000-6-5~~:|
 pm.....
[ Tab from: http://www.guitartabs.cc/tabs/b/babes_in_toyland/say_what_you_want_tab.html ]
There is a lot of palm muting in the chorus. During the parts where Kat is singing,
it's hard to tell what's going on with the guitar - Just let it ring, or pick the
fifth fret on E a bit; It sounds fine.

Solo
e|-------------------------------------------------------------------->
B|-------------------------------------------------------------------->
G|-------------------------------------------------------------------->
D|-------8--8-9-11-9-8--9-11-12^^--------8--8-9-11-9-8--9-11-9-8------>
A|-9--9----------------------------9--9--------------------------10-9->
E|-------------------------------------------------------------------->

e|-------------------------------------------------|
B|-------------------------------------------------|
G|-----------15--15-16-18-16-15--16-18-16-15-------|
D|-///16--16---------------------------------17-16-|
A|-------------------------------------------------|
E|-------------------------------------------------|

That's 3/4 of it ... The last bit you can improvise - Just play some notes going
downward from 16 on D till you get to 9 on A.

That's the whole song! This site needed some more Babes tabs, so here's my ten cents,
my two cents is free :)

-Jimmy/ElectricParade
-rah_rah_replica16@hotmail.com
Comments