Babes In Toyland - Hello Chords & Tabs

 

Hello Chords & Tabs

Babes In Toyland Chords & Tabs

Version: 2 Type: Bass Tab 0 ratings
1 star 2 stars 3 stars 4 stars 5 stars
comments

Hello Bass Tab

Babes in Toyland
"Hello"
>From "Nemesisters"
Send all corrections to Vow32@yahoo.com
[ Tab from: http://www.guitartabs.cc/tabs/b/babes_in_toyland/hello_btab_ver_2.html ]
Intro/outro:
G: ---------2-------------
D: --0-0-----------------
A: -----------1-1-2-1-2-1
E: ------------------------

Verse/chorus:
G: ---------2--1--0-------------
D: --0-0-------------------------
A: ------------------1-1-2-1-2-1
E: --------------------------------

Bridge:
A: 1--3--5--
Comments