B S E - Someday Chords & Tabs

 

Someday Chords & Tabs

B S E Chords & Tabs

Version: 1 Type: Bass Tab 0 ratings
1 star 2 stars 3 stars 4 stars 5 stars
comments

Someday Bass Tab

   
Song: Someday	
Artist:B.S.e
Album:N/A

*= play about the same amount of times that the guitar would.



INTRO/verses:

|----------------------------------------|
|----------------------------------------|
|--3*----0*----5*-----2*-----------------|
|----------------------------------------|


NOTE: intro is played after first 2 paragraphs of 
      verse 1 and is played throughout verse 2.


PRE-CHORUS: Repeat 2 times with no vocals then continue the vocals

 |----------------------------------------------|
 |----------------------------------------------|
 |-----------------3(4X)--7-5-------------------|
 |--5-(4X)-3-(4X)--------------5-5--3-3-1-1-0-3-|


CHORUS: module 1:
[ Tab from: http://www.guitartabs.cc/tabs/b/b_s_e/someday_btab.html ]
 |-----------------------------------------------|
 |-----------------------------------------------|  2x
 |-------------5-5--1-1--------------------------|
 |-5-5-5-5-5-5-----------1-1-1-1-1-1---2-4-------|


	module 2:

 |-------------------------------------------|
 |-------------------------------------------|   2x
 |---------------------1-1-1-1--3-3-3-3------|  
 |-5-5-5-5---1-1-1-1-------------------------|


NOTE: AFTER REPEATING MODULE 2 GO INTO MODULE 1 again 2 times.

ORDER OF SONG:


INTRO WITH ONLY ACOUSTIC AND FILL
VERSE 1 PART 1 WITH ONLY ACOUSTIC
VERSE 1 PART 2 WITH DRUMS AND BASS
PRE-CHORUS
CHORUS
ALL INSTRUMENTS GUITAR 1 REPEATS LEAD
VERSE 2
CHORUS
SOLO
REPEAT SOLO ONCE WITH CHORUS
CHORUS AGAIN ALL INSTRUMENTS
ACOUSTIC ENDING 2X 
Comments