B4 4 - Endlessly Chords & Tabs

 

Endlessly Chords & Tabs

B4 4 Chords & Tabs

Version: 1 Type: Tab 0 ratings
1 star 2 stars 3 stars 4 stars 5 stars
comments

Endlessly Tab

   
Well i saw the chord version and decided to share the tab version of this good song...
This song was really popular a few years back...
Pretty difficult to pick up, but once u got the rhythm of it i'll all be money...

-Peace!

Song dedicated to my girl JW!


Endlessly
Tune the Low E to a D
with Capo on 2nd Fret..


Intro:
   G                    D                        C                            Am - Strum thru
|-------------------------|------------------------|------------------------|-0---------------------|
|--0-----------0--1-----3-|----3--------0--1-----3-|----3-----1-----1-------|-1---------------------|
|--0-----------0--0-----0-|----0--------0--0-----0-|----0-----0-----0-------|-0---------------------|
|-------------------------|------------------------|------------------------|-2---------------------|
|-------------------------|----------------------3-|----------3-------------|-0---------------------|
|--5--------0--4--4-----2-|----------0--0--0-------|------------------------|-----------------------|
   1  +  2  +  3  +  4  +   1  +  2  +  3  +  4  +   1  +  2  +  3  +  4  +   1  +  2  +  3  +  4  +

Verse:
   G                    D                        C                            Am
|-------------------------|------------------------|------------------------|-----------------------|
|--0-----------3--3-----0-|----3-------------------|----3-----1-----1-------|-1-----------1--1------|
|--0-----------0--0-----0-|----0-------------------|----0-----0-----0-------|-0-----------0--0------|
|-------------------------|-------------4--5--4--0-|------------------------|-----------------------|
|-------------------------|------------------------|-3--------3-------------|-0--------0------------|
|--5--------0--4--4-----2-|----------0--0----------|------------------------|-------------0--0------|
   1  +  2  +  3  +  4  +   1  +  2  +  3  +  4  +   1  +  2  +  3  +  4  +   1  +  2  +  3  +  4  +
Late at night you call on the phone, we talk about the day...      when you found
                                                                  out he was cheating

|-------------------------|------------------------|------------------------|-----------------------|
|--0-----------3--3-----0-|----3-------------------|----3-----1-----1-------|-1---------------------|
|--0-----------0--0-----0-|----0-------------------|----0-----0-----0-------|-0-----------2---------|
|-------------------------|-------------4--5--4--0-|------------------------|-------------4---------|
|-------------------------|------------------------|-3--------3-------------|-0--------0--0---------|
|--5--------0--4--4-----2-|----------0--0----------|------------------------|-------------0---------|
   1  +  2  +  3  +  4  +   1  +  2  +  3  +  4  +   1  +  2  +  3  +  4  +   1  +  2  +  3  +  4  +
You tell me that it hurts to the bone to trust someone that way...  and find that
                                                                  he was deceiving.


|-------------------------|------------------------|------------------------|-7-----7---------------|
|--3--------3--3----------|-3--------3--3----------|-1--------1--1----------|-5-----5---------------|
|--0--------0--0----------|-2--------2--2----------|-0--------0--0----------|-5-----5---------------|
|-------------------------|------------------------|------------------------|-5-----5---------------|
|--3--------3-----------0-|-2--------2--2--------2-|-0--------0-------------|-5-----5---------------|
|-------------------------|------------------------|------------------------|-----------------------|
   1  +  2  +  3  +  4  +   1  +  2  +  3  +  4  +   1  +  2  +  3  +  4  +   1  +  2  +  3  +  4  +
           And I know I've always just ben a friend..     But if you look my way
                                                     I'll make sure you never hurt again
[ Tab from: http://www.guitartabs.cc/tabs/b/b4_4/endlessly_tab.html ]
Chorus:
|-------------------------|------------------------|------------------------|-----------------------|
|--0-----------0--1-----3-|----3--------0--1-----3-|----3-----1-----1-------|-1-----------1--1------|
|--0-----------0--0-----0-|----0--------0--0-----0-|----0-----0-----0-------|-0-----------0--0------|
|-------------------------|------------------------|------------------------|-----------------------|
|-------------------------|----------------------3-|----------3-------------|-0--------0------------|
|--5--------0--4--4-----2-|----------0--0--0-------|------------------------|-------------0--0------|
   1  +  2  +  3  +  4  +   1  +  2  +  3  +  4  +   1  +  2  +  3  +  4  +   1  +  2  +  3  +  4  +
        Do you know I exist, just to promise you this                       Endlessly to be true to 

|-------------------------|------------------------|------------------------|-----------------------|
|--0-----------0--1-----3-|----3--------0--1-----3-|----3-----1-----1-------|-1-----------1--1------|
|--0-----------0--0-----0-|----0--------0--0-----0-|----0-----0-----0-------|-0-----------0--0------|
|-------------------------|------------------------|------------------------|-----------------------|
|-------------------------|----------------------3-|----------3-------------|-0--------0------------|
|--5--------0--4--4-----2-|----------0--0--0-------|------------------------|-------------0--0-----0|
   1  +  2  +  3  +  4  +   1  +  2  +  3  +  4  +   1  +  2  +  3  +  4  +   1  +  2  +  3  +  4  +
you and if you answer my prayer I'd crose my heart and I'd swear..          Endlessly to e true to 

|-------------------------|------------------------|------------------------|-0-----0---------------|
|--0--------0--0----------|-3--------3--3----------|-3--------3--3----------|-1-----1---------------|
|--0--------0--0----------|-0--------0--0----------|-2--------2--2----------|-0-----0---------------|
|-------------------------|------------------------|------------------------|-2-----2---------------|
|-----------------------0-|-3--------3-----------0-|-2--------2-------------|-0-----0---------------|
|--2--------2-------------|------------------------|------------------------|-----------------------|
   1  +  2  +  3  +  4  +   1  +  2  +  3  +  4  +   1  +  2  +  3  +  4  +   1  +  2  +  3  +  4  +
you.          And if you' on--------ly          see---                   How beautiful you and I would be

|--2h3p2p0-----2----------|
|--------------3----------|
|--------------2----------|
|--------------0----------|
|-------------------------|
|-------------------------|
   1  +  2  +  3  +  4  +  
                    Endlessly..

Bridge:                                                                       Cm
|-------------------------|-2--------2--2----------|------------------------|-3---------------------|
|--3--------3--3----------|-1--------1--1----------|-0--------0--0----------|-4---------------------|
|--0--------0--0----------|-2--------2--2----------|-0--------0--0----------|-5---------------------|
|-------------------------|-1--------1-------------|------------------------|-5---------------------|
|--3--------3-----------0-|----------------------0-|------------------------|-3---------------------|
|-------------------------|------------------------|-2--------2-------------|-----------------------|
   1  +  2  +  3  +  4  +   1  +  2  +  3  +  4  +   1  +  2  +  3  +  4  +   1  +  2  +  3  +  4  +
          Sometimes the   thing you need is the one thing    you can't       see.           If you put

                                                                              Strum from high string down
|-------------------------|------------------------|-5h7p5------------------|-5---------------------|
|--3--------3--3----------|-1--------1--1----------|------------------------|-5---------------------|
|--0--------2--2----------|-0--------0--0----------|------------------------|-5---------------------|
|-------------------------|------------------------|------------------------|-----------------------|
|--3--------2-----------2-|-0--------0-------------|------------------------|-----------------------|
|-------------------------|------------------------|------------------------|-----------------------|
   1  +  2  +  3  +  4  +   1  +  2  +  3  +  4  +   1  +  2  +  3  +  4  +   1  +  2  +  3  +  4  +
           your faith  in  me                                            How beautiful you and I would be

Verse 2:
I remember when you fell in love
I could not believe
That it was not with me

I sent a secret prayer up above
and put my heart away
so that you could be free

And I know right now
You're broken in two
But did you know my heart's been
Broken since the day I met you

2nd chorus:
Do you know I exist
Just to promise you this
Endlessly to be true to you
And if you answer my rayer
I'd cross my heart and I'd swear
Endlessly to be true to you

And if my sweetest dream
You'd learn to put your faith in me
Endlessly
Comments