Azure - Stick Around Chords & Tabs

 

Stick Around Chords & Tabs

Azure Chords & Tabs

Version: 3 Type: Tab

Stick Around Tab

   
First tab ko lang po to... im not really sure sa iba.. hehehe...


 Intro: 
e|------------------------------------------------------|
B|--7h9---7----------------7----------7h9--7---5---0----|
G|--6h8-------6h8--6------8-------8---6h8---------------|
D|-----------------------9-------8----------------------|
A|----------------------9-------6--------------5---2----|
E|---------------------7-------6------------------------|
                                                                                   
        B      D#           A       E
e|----------------------------------0---|
B|-----7----------7h9--7-----5----------|
G|----6-------8---6h8-------6------1----|
D|---9-------8-------------7------2-----|
A|--9-------6-------------7------2------|
E|-7-------6-------------5------0-------|

 Ref:   C#m         D#
e|---------------------------------|
B|------5--t-5----7--t--7----------|
G|------6--a-6----8--a--8----------|  2x
D|---------p---------p-------------|
A|---4-------4--6-------6----------|
E|---------------------------------|

[ Tab from: http://www.guitartabs.cc/tabs/a/azure/stick_around_tab_ver_3.html ]
Chorus:
e|--------------------------------------------------------------------|
B|-----7-t---7--7-t----7-t--7--7-t----5-t--5--5-t----0--t--0--0-t-----|
G|-----8-a---8-8--a----8-a--8-8--a----6-a--6-6--a-------a----0--a-----|
D|-------p--------p------p-------p------p-------p-------p-------p-----|
A|-------------------6------6------------------------2-----2----------|
E|---7-------7----------------------5------5--------0-----------------|

e|--------------------------------------------------------------------|
B|-----7-t---7--7-t----7-t--7--7-t----5-t--5--5-t----0--t--0----t-----|
G|-----8-a---8-8--a----8-a--8-8--a----6-a--6-6--a-------a-------a-----|
D|-------p--------p------p-------p------p-------p-------p-------p-----|
A|-------------------6------6------------------------2-----2----------|
E|---7-------7----------------------5------5--------0-----------------|

e|---------------------------------|
B|------5--t-5----7--t--7----------|
G|------6--a-6----8--a--8----------|  
D|---------p---------p-------------|
A|---4-------4--6-------6----------|
E|---------------------------------|

e|---------------------------------|
B|------5--t-5----7--t--7----0-----|
G|------6--a-6----8--a--8----------|  
D|---------p---------p-------------|
A|---4-------4--6-------6----2-----|
E|---------------------------------|

e|------------------------|
B|--7h9---7---------------|
G|--6h8------6h8----6-----|
D|------------------------|
A|------------------------|
E|------------------------|    

Do 1st stanza chords..


hehehe.. Para sa MahaL coH ang kuLitz kac eh.. 
everytime i hold my guitar stick around kaagad ang gus2 hehe..
Luvv po maHaL coH.. MizzyOu aLwaYs..   
GodBLessYou aLL...""""!
EiNjHeL...TOnI