Azra - Uzas Je Moja Furka Chords & Tabs

 

Uzas Je Moja Furka Chords & Tabs

Azra Chords & Tabs

Version: 2 Type: Bass Tab 0 ratings
1 star 2 stars 3 stars 4 stars 5 stars
comments

Uzas Je Moja Furka Bass Tab

   Artist: Azra
     Song: Uzas je moja furka
Tablature: Bass

tabbed by metal_rules
for suggestions:
newmetal_rules@yahoo.com

first guitar and drums
intro
G|--------------------------------------------|
D|------------------------7-7-7-7-5p-7p-------|
A|--3p------0--3------------------------------|
E|------3p----------3-------------------------|

            3x and then

G|--------------------------------------------|
D|------------------------7-7-7-7-7-5--7--5--7|
A|--3p------0--3------------------------------|
E|------3p----------3-------------------------|

            1x and then

verse
G|--------------------------------------------|
D|--------------------------------------------|
A|--3-----0--3--------------------------------|
E|-----3--------3-3--5--3--5------------------|

    Smrdljivi grad zatvara.......
            4x and then
[ Tab from: http://www.guitartabs.cc/tabs/a/azra/uzas_je_moja_furka_btab_ver_2.html ]
chorus
G|--------------------------------------------|
D|--------------------------------------------|
A|--3---------3---------3---------------------|
E|-----3-/5------3-/5------3-/5555------------|

      Ooooo.... ooooo...    ooo
             4x and then

verse2
G|--------------------------------------------|
D|--------------------------------------------|
A|--3-----0--3--------------------------------|
E|-----3--------3-3--5--3--5------------------|

    Kosijaneri trule u ......
             4x and then

chorus
G|--------------------------------------------|
D|--------------------------------------------|
A|--3-3-3-3-----------------------------------|
E|-----------3-3-3-3----5--5-5-5-5------------|

    Ooooo.... ooooo...    ooo
             4x and then

guitar solo....
G|--------------------------------------------|
D|------------------------7-7-7-7-5p-7p-------|
A|--3p------0--3------------------------------|
E|------3p----------3-------------------------|

                4x and then

just drums and bass....
G|--------------------------------------------|
D|--------------------------------------------|
A|--3-----0--3--------------------------------|
E|-----3--------3-3--5--3--5------------------|


chorus

thats it !!
Comments