Aynsley Lister - Nothing At All Chords & Tabs

 

Nothing At All Chords & Tabs

Aynsley Lister Chords & Tabs

Version: 1 Type: Tab 0 ratings
1 star 2 stars 3 stars 4 stars 5 stars
comments

Nothing At All Tab

   
3. Nothing at All 
Tabbed by Peatemark@hotmail.com

Check out Aynsleys website www.aynsleylister.co.uk - He rocks!


Intro 						
G	D	Am	   C			
|---3-33----2-22-|---0-----3-3-|----------|	
|---3-33----3-33-|---1-----3-3-|----------|	
|---0-00----2-22-|---2-----0-0-|---0--020-|	
|---0-00----0-00-|---2-----2-2-|-02-------|	
|---2-22-—-------|-0----02-3-3-|----------|	
|-3-3-33---------|-------------|----------|	

G	D	Am	   C	
|--3-33----2-22-|---0-----3-3-|------|
|--3-33----3-33-|---1-----3-3-|------|
|--0-00----2-22-|---2-----0-0-|------|	
|--0-00----0-00-|---2-----2-2-|---02-|
|--2-22-—-------|-0----02-3-3-|-2----|
|3-3-33---------|-------------|------|

Riff 1					
  E     G  A                       	
|-0-----3----|---------|			
|-0-----3--2-|---2-2---|		
|-1-xx--0--2-|xx-2-2-0-|		
|-2-xx--0--2-|xx-2-2-0-| x 6 (Lyrics enter on 3rd repeat)  	
|-2-xx--2--0-|xx-0-0-0-|		
|-0-----3----|---------|
	
Didn’t have a lot of money now I have nothing at all
Yeah I had a good time drank beer and pissed it up against the wall
	
Now say hello reality what do I say
Never got enough to worry ‘bout saving for a rainy day

Riff 3							         Riff 4
     C	      G               F		 E       G   A              C
|-0----0-3----33-1----1-1-|-0----3----------|-0-------------------------|
|-1----1-3----33-1----1-1-|-0----3--2-2-2-0-|-1—-1-0-1-0—-1-0--1-0-1-0--|
|-0-xx-0-0-xx-00-2-xx-2-2-|-1-xx-0--2-2-2-0-|-0----------0----0-------0-|
|-2-xx-2-0-xx-00-3-xx-3-3-|-2-xx-0--2-2-2-0-|-2-------------------------|
|-3-xx-3-2-xx-22-3-xx-3-3-|-2-xx-2--0-0-0-0-|-3-------------------------|
|-3----3-3----33-1----1-1-|-0----3----------|-3-------------------------|

	   G     D                Am       C    		
but then you say that you love me        		
|---3-33----2-22---|---0-0----------|---------|	
|---3-33----3-33---|---1-1-------3--|---------|	
|---0-00----2-22---|---2-2-------0--|----0—020|	
|---0-00----0-00---|---2-2-------2--|-0-2-----|	
|---2-22-—---------|-0-------0-2-3--|---------|	
|-3-3-33-----------|----------------|---------|	

         G		D	            C 
         that’s when I know everything’s ok
|---3-33-------2-22---|-------0------------------------|
|---3-33-------3-33---|-------1—-1-0-1-0—-1-0--1-0-1-0-|
|---0-00-------2-22---|-------0----------0----0--------|
|---0-00-------0-00---|-------2------------------------|
|---2-22-—------------|-------3------------------------|
|-3-3-33--------------|-------3------------------------|
[ Tab from: http://www.guitartabs.cc/tabs/a/aynsley_lister/nothing_at_all_tab.html ]
    G       D       Am        C                                         
& then you say everything’s alright  	
|---3-33----2-22-|---0-0----------|------------|	
|---3-33----3-33-|---1-1-------3--|------------|
|---0-00----2-22-|---2-2-------0--|-----0--020-|	
|---0-00----0-00-|---2-2-------2--|--0-2-------|
|---2-22-—-------|-0-------0-2-3--|------------|	
|-3-3-33---------|----------------|------------|
   
 G                 D                          C                   Bb7 
    ease my mind when I hear you say  		lets start over again
|---3-33----2-22-|---------0----------2--|--------|----------|
|---3-33----3-33-|---------1----------0--|--------|----------|
|---0-00----2-22-|---------0----------2--|-Riff 1-|----------|
|---0-00----0-00-|---------2----------1--|--x 1---|----0—-02-|
|---2-22-—-------|---------3---------2---|--------|--02------|
|-3-3-33---------|---------3--------0----|--------|----------|

w/riff 2
3am in the morning crawling back to you
could be an overreaction but I guess I got nothing to lose
I’m looking for forgiveness for what I've done
what I see through it all is that I know I’m still you number 1

but then you say that you love me
that’s when I know everything’s ok
& then you say everything’s alright
ease my mind when I hear you say lets start over again

|---------------------------------------------|-------------0-0----|
|---------------------------------------------|-------------1-1----|
|-----‘Trippy --------------------------------|-------0-----0-0----|
|------section’-------------------------------|-----2-------2-2----|
|---------------------------------------------|---3---------3-3----|
|---------------------------------------------|-------------3-3----|

Solo (slide)
|------------|----------|--------|----------|-------|-------|-------------|
|-3/12~~~~~~-|7—--7/8~~~|---5~~~~|-3/12~~~--|7-~~~--|-5—----|--/1~~~~~~---|
|------------|----------|--------|----------|-------|-------|-------------|
|------------|----------|--------|----------|-------|-------|-------------|
|------------|----------|--------|----------|-------|-------|-------------|
|------------|----------|--------|----------|-------|-------|-------------|

|---------------------------------|----10---10-12----10-1210---10~~~-12~~-|
|----88--8~-8-10(br)--8--810~~8---|-/12--12-----------------12------------|
|-/9---9-----9--------------------|---------------------------------------|
|---------------------------------|---------------------------------------|
|---------------------------------|---------------------------------------|
|---------------------------------|---------------------------------------|

|----15-15~~-----1515--------------------|-------------------------------|
|-/17--------/17------17-15--------------|-------------------------------|
|---------------------------16-14-12-----|------12~------12~------12-----|
|------------------------------------14--|-12/14----1214-----/14----14---|
|----------------------------------------|-------------------------------|
|----------------------------------------|-------------------------------|

|----------------------|
|----------------------|
|----------------------|
|--------12------------|
|---12/14-—14\12-10~~~-|
|----------------------|



& then you say that you love me
that’s when I know everything’s ok
& then you say everything’s alright 		( w/slide solo again)
ease my mind when I hear you say
Comments