Awkward Dream - Did You Think Chords & Tabs

 

Did You Think Chords & Tabs

Awkward Dream Chords & Tabs

Version: 1 Type: Tab 0 ratings
1 star 2 stars 3 stars 4 stars 5 stars
comments

Did You Think Tab

   
-------------------------------------------------------------------------------
			 Did You Think - Awkward Dream
-------------------------------------------------------------------------------

By:m1j0y3korn@aol.com

palm mute = .......
slide = /
hold note = ~


Intro
e|----------------------------------------------------------------|
B|----------------------------------------------------------------|
G|----------------------------------------------------------------|
D|-99999999-77777777-55555555-22222222--5-222222-5-2-5-222222-5-2-|
A|-99999999-77777777-55555555-22222222--5-222222-5-2-5-222222-5-2-| x2
E|-77777777-55555555-33333333-00000000--3-000000-3-0-3-000000-3-0-|
pm                                         .....        .....

e|----------------------------------------------------------------|
B|----------------------------------------------------------------|
G|----------------------------------------------------------------|
D|-99999999-77777777-1212121212-9999999-5-222222-5-2-5-222222-5-2-|
A|-99999999-77777777-1212121212-9999999-5-222222-5-2-5-222222-5-2-|
E|-77777777-55555555-1010101010-7777777-3-000000-3-0-3-000000-3-0-|
pm                                         .....        .....

e|----------------------------------------------------------------|
B|----------------------------------------------------------------|
G|----------------------------------------------------------------|
D|-99999999-1212121212-7777777-9999999--5-222222-5-2-5-222222-5-2-|
A|-99999999-1212121212-7777777-9999999--5-222222-5-2-5-222222-5-2-|
E|-77777777-1010101010-5555555-7777777--3-000000-3-0-3-000000-3-0-|
pm                                         .....        .....

Verse
e|-----------------------------------|
B|-----------------------------------|
G|---------------------------5555555-|
D|-2222222-55555555-77777777-5555555-|
A|-2222222-55555555-77777777-3333333-| x2
E|-0000000-33333333-55555555---------|
pm  ......  .......  .......  ......

Pre-Chorus
e|-----------------------------|  }
B|-----------------------------|  }
G|-----------------------------|  }
D|-2222222222-55555555555--555-|  }
A|-2222222222-55555555555--555-|  }
E|-0000000000-33333333333--333-|  }
pm                         ...    }
                                  } x2
e|-----------------------------|  }
B|-----------------------------|  }
G|------------777777-55555-----|  }
D|-2222222222-777777-55555-555-|  }
A|-2222222222-555555-33333-555-|  }
E|-0000000000--------------333-|  }
pm                         ...

Chorus
e|-----------------------------------|
B|-----------------------------------|
G|---------55555555---------22222222-|
D|-2222222-55555555-5555555-22222222-|
A|-2222222-33333333-5555555-00000000-| x4
E|-0000000----------3333333----------|
[ Tab from: http://www.guitartabs.cc/tabs/a/awkward_dream/did_you_think_tab.html ]
Intro
e|----------------------------------------------------------------|
B|----------------------------------------------------------------|
G|----------------------------------------------------------------|
D|-99999999-77777777-55555555-22222222--5-222222-5-2-5-222222-5-2-|
A|-99999999-77777777-55555555-22222222--5-222222-5-2-5-222222-5-2-|
E|-77777777-55555555-33333333-00000000--3-000000-3-0-3-000000-3-0-|
pm                                         .....        .....

e|----------------------------------------------------------------|
B|----------------------------------------------------------------|
G|----------------------------------------------------------------|
D|-99999999-1212121212-7777777-9999999--5-222222-5-2-5-222222-5-2-|
A|-99999999-1212121212-7777777-9999999--5-222222-5-2-5-222222-5-2-|
E|-77777777-1010101010-5555555-7777777--3-000000-3-0-3-000000-3-0-|
pm                                         .....        .....

Verse
e|-----------------------------------|
B|-----------------------------------|
G|---------------------------5555555-|
D|-2222222-55555555-77777777-5555555-|
A|-2222222-55555555-77777777-3333333-| x2
E|-0000000-33333333-55555555---------|
pm  ......  .......  .......  ......

Pre-Chorus
e|-----------------------------|
B|-----------------------------|
G|-----------------------------|
D|-2222222222-55555555555--555-|
A|-2222222222-55555555555--555-| x2
E|-0000000000-33333333333--333-|
pm                         ...

e|-----------------------------------------------------|
B|-----------------------------------------------------|
G|------------5555555555---------------5555555555--555-|
D|-7777777777-5555555555---77777777777-5555555555--555-|
A|-7777777777-3333333333---77777777777-3333333333--333-|
E|-5555555555--------------55555555555-----------------|
pm                                                 ...

Chorus
e|---------------------------------------|
B|---------------------------------------|
G|---------55555555---------22222222-----|
D|-2222222-55555555-5555555-22222222--2~-|
A|-2222222-33333333-5555555-00000000--2~-| x4
E|-0000000----------3333333-----------0~-|

Breakdown
e|--------------------------------------------|
B|--------------------------------------------|
G|-1212121212-------------1212121212-10101010-|
D|------------10/12-10/12---------------------|
A|-1010101010-10/12-10/12-1010101010--8-8-8-8-| x3
E|-------------8/10--8/10---------------------|

e|------------xx------------------------xx----------|
B|------------xx------------------------xx----------|
G|-1212121212-xx-------------1212121212-xx-10101010-|
D|------------xx-10/12-10/12------------xx----------|
A|-1010101010-xx-10/12-10/12-1010101010-xx--8-8-8-8-| x3
E|------------xx--8/10--8/10------------xx----------|

Chorus
e|---------------------------------------|
B|---------------------------------------|
G|---------55555555---------22222222-----|
D|-2222222-55555555-5555555-22222222--2~-|
A|-2222222-33333333-5555555-00000000--2~-| x4
E|-0000000----------3333333-----------0~-|

===============================================================================
Comments