Awakened - Gender Issues Chords & Tabs

 

Gender Issues Chords & Tabs

Awakened Chords & Tabs

Version: 1 Type: Tab 0 ratings
1 star 2 stars 3 stars 4 stars 5 stars
comments

Gender Issues Tab

#-----------------------------------------------------------------------------#
#-- File created with Instab - http://www.pconline.com/~smcarey/instab.html --#
#-----------------------------------------------------------------------------#

Author/Artist: Awakened
Title: Gender Issues
Transcribed by: Ben
Email: roadkill_65@hotmail.com

Order of song: Intro part 1, intro part 2, verse 1, chorus,
verse 2, chorus, riff a, chorus, solo, riff a, chorus x2

-------------------------1---------------1------------------------------------|
---------1-----------3-----3---3-----1-----1---1------------------------------|
-----2-----2---2---2---2-----2-----2---2-----2-------0------------------------|
---2---2-----2---0---------------3-----------------2--------0-----------------|
-0-----------------------------------------------3--------2-------------------|
--------------------------------------------------------3---------------------|
 intro part 1 X2

-0---------1--------1--------0----3-------------------------------------------|
-1---------3--------1--------1----0-------------------------------------------|
-2---------2--------2--------0----0-------------------------------------------|
-2---------0--------3--------2----0-------------------------------------------|
-0------------------0--------3----2-------------------------------------------|
----------------------------------3-------------------------------------------|
 intro part 2 X2

-0----------------1--------1-----------------0------3-------------------------|
-1----------------3--------1-----------------1------0-------------------------|
-2----------------2--------2-----------------0------0-------------------------|
-2----------------0--------3-----------------2------0-------------------------|
-0-------------------------0-----------------3------2-------------------------|
----------------------------------------------------3-------------------------|
     we know this guy, or girl, his name is jim, or possibly

-0----------------1----------1-------------------------0----------3-----------|
-1----------------3----------1-------------------------1----------0-----------|
-2----------------2----------2-------------------------0----------0-----------|
-2----------------0----------3-------------------------2----------0-----------|
-0---------------------------0-------------------------3----------2-----------|
------------------------------------------------------------------3-----------|
 jemima. nobody's really sure, he doesn't belong to any gender in paticular

-0--------1--------------------------1--------------0--------3----------------|
-1--------3--------------------------1--------------1--------0----------------|
-2--------2--------------------------2--------------0--------0----------------|
-2--------0--------------------------3--------------2--------0----------------|
-0-----------------------------------0--------------3--------2----------------|
-------------------------------------------------------------3----------------|
 One day, jim was wandering ome from school when he stumbled across a

-0---------1---------1---------0----3-----------------------------------------|
-1---------3---------1---------1----0-----------------------------------------|
-2---------2---------2---------0----0-----------------------------------------|
-2---------0---------3---------2----0-----------------------------------------|
-0-------------------0---------3----2-----------------------------------------|
------------------------------------3-----------------------------------------|
 geyser.                            literally
[ Tab from: http://www.guitartabs.cc/tabs/a/awakened/gender_issues_tab.html ]
-0------------------------1---------------------------------------------1-----|
-1------------------------3---------------------------------------------1-----|
-2------------------------2---------------------------------------------2-----|
-2------------------------0---------------------------------------------3-----|
-0----------------------------------------------------------------------0-----|
------------------------------------------------------------------------------|
 stumbled across a geyser, and he would have got third degree burns all over

----------------------------------------------0-----3-------------------------|
----------------------------------------------1-----0-------------------------|
----------------------------------------------0-----0-------------------------|
----------------------------------------------2-----0-------------------------|
----------------------------------------------3-----2-------------------------|
----------------------------------------------------3-------------------------|
 his body and lost what gender he didn't have.

-0----------------1---------------1------------------0-----3------------------|
-1----------------3---------------1------------------1-----0------------------|
-2----------------2---------------2------------------0-----0------------------|
-2----------------0---------------3------------------2-----0------------------|
-0--------------------------------0------------------3-----2------------------|
-----------------------------------------------------------3------------------|
 but he didn't.                    and you know why.

------------------------------------------------------------------------------|
------------------------------------------------------------------------------|
-----------7---------------------------5--------------------------------------|
-7---------7----------------3----------5--5-----------------------------------|
-7---------5----------------3----------3--5-----------------------------------|
-5--------------------------1-------------3-----------------------------------|
 he belongs to no gender in paticular       X4

------------------------------------------------------------------------------|
------------------------------------------------------------------------------|
----------------------5-5-5-5-------------------------------------------------|
----3-3-3-3-3-3-3-3---5-5-5-5---5-5-5-5---------------------------------------|
----3-3-3-3-3-3-3-3---3-3-3-3---5-5-5-5---------------------------------------|
----1-1-1-1-1-1-1-1-------------3-3-3-3---------------------------------------|
 pm - - - - - - - - - - - - - - - - - - X2 (riff a)

------------------------------------------------------------------------------|
------------------------------------------------------------------------------|
--------------------------5-5-5-5---------------------------------------------|
--------3-3-3-3-3-3-3-3---5-5-5-5---5-5-5-5-----------------------------------|
--------3-3-3-3-3-3-3-3---3-3-3-3---5-5-5-5-----------------------------------|
--------1-1-1-1-1-1-1-1-------------3-3-3-3-----------------------------------|
 then       (riff a continued) X2 (crescendo)

-------17----17------------------------------------17-22-22-------------------|
---------------------------------------------------------------13--13--13--13-|
-14-------14-------19-19---------17-17-12-12-14------------------12--12--12---|
-------------------------15---------------------------------17----------------|
------------------------------------------------------------------------------|
------------------------------------------------------------------------------|
 solo

------------------------------------------------------------------------------|
----13-13-13-13-13-13---------------------------------------------------------|
-12-------12-12-12-12---------------------------------------------------------|
------------------------------------------------------------------------------|
------------------------------------------------------------------------------|
------------------------------------------------------------------------------|
Comments