Avril Lavigne - Things I Will Never Say Chords & Tabs

 

Things I Will Never Say Chords & Tabs

Avril Lavigne Chords & Tabs

Version: 1 Type: Bass Tab 0 ratings
1 star 2 stars 3 stars 4 stars 5 stars
comments

Things I Will Never Say Bass Tab

Avril Lavigne - Things I'll Never Say
~~~~~~~~~~~~~~~~~~~~~~~~~~~~~~~~~~~~~
Tabbed by Brent (mo_munky@yahoo.com)
Found at Anything But Ordinary (http://www.comeunglued.com/avril/)
Tuning - Standard tuning EADG

intro/chorus
G-------------------------------------------------
D-------------------------------------------------
A--5----5-5---------------------------------------
E---------------5---5-5------7---7-7------3---3-3-

G------------------
D------------------
A------------------
E----7--7-7/-3---3-
verse
G------------------------------------------------
D------------------------------------------------
A--2---2-2-----------------------------0---0-0---
E---------------3---3-3-----2---2-2--------------

G---------------------
D---------------------
A-------------2---2-2-
E--3---3-3------------
[ Tab from: http://www.guitartabs.cc/tabs/a/avril_lavigne/things_i_will_never_say_btab.html ]
"whats wrong with my tongue"
G--------------------------------------------------------------------
D--------9------------------7--------------5-------------5-----------
A-----9------------------7--------------5-------5-----5-----5--------
E--7------------------5--------------3-------------3-----------3-----

G--------------------------------------------------------------------
D--------9-11-12-11------------------------5-------------5------7/9~-
A-----9------------------7--0-----------5-------5-----5-----5--------
E--7------------------5--------5-----3-------------3-----------------

G------------------------------------------------------------------
D------------------------------------------------------------------
A------------------------------------------------------------------
E--7------3----------7---------5-5-5-5-5-5-5-5-5-5-5-5-5-5---------

That's it... there's some improvising done in the 
verses and choruses that you can do cause I don't 
wanna type it out note for note it would take to long
Comments