Avril Lavigne - Take Me Away Chords & Tabs

 

Take Me Away Chords & Tabs

Avril Lavigne Chords & Tabs

Version: 1 Type: Tab 0 ratings
1 star 2 stars 3 stars 4 stars 5 stars
comments

Take Me Away Tab

   
-------------------------------------------------------------------------------
			     Take Me Away (Intro) - Avril Lavigne
-------------------------------------------------------------------------------
Tabbed by: Shirl		
Email: xcipher21x@yahoo.com


This is just the intro/outro/verse.


Tuning: Drop D  

    Em  Dsus2  Asus2 Cmaj7     
  e|0	0	0    	0  
  B|0	3	0	0
  G|0	2	2	0
  D|2	0	2	2
  A|2	X	0	3
  E|0	X	X	X	

[ Tab from: http://www.guitartabs.cc/tabs/a/avril_lavigne/take_me_away_tab.html ]
  Em     Dsus2   Asus2  Cmaj7  Dsus2    
e|---------------------------------------------------------------------------|
B|---------------------------------------------------------------------------|
G|-----00------------00------------------------------------------------------|
D|------------44---2------2----4---------------------------------------------|
A|---2------0----0------3----------------------------------------------------|
D|-2------0------------------0-----------------------------------------------|
     


===============================================================================
Comments