Avril Lavigne - Sk8er Boi Chords & Tabs

 

Sk8er Boi Chords & Tabs

Avril Lavigne Chords & Tabs

Version: 2 Type: Tab 0 ratings
1 star 2 stars 3 stars 4 stars 5 stars
comments

Sk8er Boi Tab

*******************************
***********Sk8er Boi***********
*******************************
I am Sick and tired of all these
freaks saying "its 12:30 in the
morning here and i dont know if
its right cuz im tired!",  If its
 all messed up...
I DONT CARE!  GET A BETTER TAB!



This is sk8er boi as i see it, 
I think it sounds just like the
song.


E---------------------------------------------
B---------------------------------------------
G--7-7-7-7------------------------------------
D--7-7-7-7--7-7-7-7--9-9-9--7-7-7-------------
A--5-5-5-5--7-7-7-7--9-9-9--7-7-7-------------
E-----------5-5-5-5--7-7-7--5-5-5-----------X2

[ Tab from: http://www.guitartabs.cc/tabs/a/avril_lavigne/sk8er_boi_tab_ver_2.html ]
Verses
SUPER HEAVY DISTORT.
E---------------------------------------------
B---------------------------------------------
G---------------------------------------------
D--7-7-7--3-3-3--8-8-8--7-7-7--3-3-3--8-8-8---
A--7-7-7--3-3-3--8-8-8--7-7-7--3-3-3--8-8-8---
E--5-5-5--6-6-6--6-6-6--5-5-5--1-1-1--6-6-6---

P  * * *  * * *  * * *  * *    * *    * *


Chorus
E--------------------------
B--------------------------
G--------------------------
D--3-3-3--7-7-7--8-8-8-----
A--3-3-3--7-7-7--8-8-8-----
E--1-1-1--5-5-5--6-6-6-----

Thanx 4 lookin thru and tty all l8ta!

|}&@(&
|
    ___        ___
   /   \ \   /  |
   |   |  \_/   |
   \__/     

RRR

BTW
Email me if its all messed up
Ryguy3@attbi.com
Comments