Avril Lavigne - Sk8er Boi Chords & Tabs

 

Sk8er Boi Chords & Tabs

Avril Lavigne Chords & Tabs

Version: 8 Type: Bass Tab 0 ratings
1 star 2 stars 3 stars 4 stars 5 stars
comments

Sk8er Boi Bass Tab

   
Song: Sk8er Boi
Artist: Avril Lavigne
Album: Let Go
Tabbed by: Paul Eves (LvlyDy4aGuinness@Hotmail.com)


Please contact me with any comments.



Intro  
     D        A        B      Bb   A
G|--------------------------------------|
D|-------------------------------------*|
A|55555555-00000000-22222222-1111-0000-*|
E|--------------------------------------|


Verse 1 & 2
      D        A        B        Bb  
G|------------------------------------|
D|------------------------------------|
A|55555555-00000000-22222222-11111111-|
E|------------------------------------|

     D        A        B        C
G|-------------------------------------|
D|------------------------------------*|
A|55555555-00000000-22222222-33333333-*|
E|-------------------------------------|
		

Chorus  

      F        C       Bb        A 
G|--------------------------------------|
D|-------------------------------------*|
A|---------33333333-11111111-00000000--*|
E|11111111------------------------------|

Chorus Outro

Let last note ring........... 
   Bb
G|-------|
D|-------|
A|11>----|
E|-------|

Verse 3

G|------------------------------------|
D|------------------------------------|
A|55555555-00000000-22222222-11111111-|
E|------------------------------------|


G|-------------------------------------|
D|-------------------------------------|
A|55555555-00000000-22222222-33\--3\---|
E|-------------------------------------|
[ Tab from: http://www.guitartabs.cc/tabs/a/avril_lavigne/sk8er_boi_btab_ver_8.html ]
Verse 4

G|------------------------------------|
D|------------------------------------|
A|55555555-00000000-22222222-11111111-|
E|------------------------------------|


G|----------------------------12-9-------------|
D|---------------------------------10-5-2------|
A|55555555-00000000-22222222-3------------3----|
E|------------------------------------------3--|

Bridge Intro  (^ Accent)

G|--------------------------------------|
D|--------------------------------------|
A|---------33333333-11111111-4-4-4-4----|
E|11111111------------------------------|
                             ^ ^ ^ ^
G|--------------------------------------|
D|--------------------------------------|
A|---------33333333-11111111-4-4-0------|
E|11111111------------------------------|
                             ^ ^ ^

Bridge  "Sorry Girl...."
          D                 F          
G|------------------------------------|
D|------------------------------------|
A|55555555-55555555-------------------|
E|------------------11111111-11111111-|

          C            Bb        A
G|---------------------------------------|
D|-------------------------------------*-|
A|33333333-33333333-11111111-00000000--*-|
E|---------------------------------------|

"He's just a boy....."

G|------------------------|
D|------------------------|
A|5----22-11-55----22-33>-|
E|--55----------55--------|

Song Order

Intro X2

Verse 1 & 2 X2

Chorus X2

Chorus Outro

Verse 3

Verse 4

Chorus X4

Chorus Outro

Bridge Intro

Bridge "Sorry Girl..."

"He's just a boy..."

Chorus X4

Chorus Outro
Comments