Avril Lavigne - Sk8er Boi Chords & Tabs

 

Sk8er Boi Chords & Tabs

Avril Lavigne Chords & Tabs

Version: 3 Type: Bass Tab 0 ratings
1 star 2 stars 3 stars 4 stars 5 stars
comments

Sk8er Boi Bass Tab

THIS IS EASY!

Intro:
G-----------------------------------------
D---00000000------------------------------     X2
A------------00000000-22222222-1111-0000--
E-----------------------------------------

Verse:
G-----------------------------------------
D---0-0-0-0-------------------------------     X4
A------------0-0-0-0--2-2-2-2--1-1--0-0---
E-----------------------------------------

1st Chorus:
G-----------------------------------------
D-----------------------------------------     X2
A------------33333333-11111111-00000000---
E---11111111------------------------------

2nd Verse:
G-----------------------------------------
D---0-0-0-0-------------------------------     X4
A------------0-0-0-0--2-2-2-2--1-1--0-0---
E-----------------------------------------
[ Tab from: http://www.guitartabs.cc/tabs/a/avril_lavigne/sk8er_boi_btab_ver_3.html ]
2nd Chorus:
G-----------------------------------------
D-----------------------------------------     X4
A------------33333333-11111111-00000000---
E---11111111------------------------------

thing after chorus:
G-----------------------------------------
D-----------------------------------------     X2
A------------33333333-11111111-4-4-4-4----
E---11111111------------------------------

Bridge:
G--------------------------------------------------------------------------
D---0000000000000000-------------------------------------------------------  X2
A-------------------------------------3333333333333333-11111111-00000000---
E--------------------1111111111111111--------------------------------------

3rd Chorus:
G-----------------------------------------
D-----------------------------------------     X4
A------------33333333-11111111-00000000---
E---11111111------------------------------

ENDS ON 'D'!!!!! remember that!

by Perks!
Comments