Avril Lavigne - Nobodys Home Chords & Tabs

 

Nobodys Home Chords & Tabs

Avril Lavigne Chords & Tabs

Version: 5 Type: Tab 0 ratings
1 star 2 stars 3 stars 4 stars 5 stars
comments

Nobodys Home Tab

   
Avril Lavigne
"Nobody's Home"

Tabbed by: Nazeric


Standard tuning (EADGBe) - Capo on 1st fret

(Please listen for timing)


Intro:

Guitar 1:

|--0~--0~--0~--0~--|
|------------------|
|------------------|
|------------------|
|------------------|
|------------------| (done repeatedly until verse)


Guitar 2:

|---------0-------------0--------------------------------|
|-----0-------------3-----------------0-------------1--0-|
|---0---0---------2---2-----------0-------------0--------|
|-2-------------0---------------2---2---------2---2------|
|-----------------------------3-------------3------------|
|--------------------------------------------------------|




Verse:

Guitar 1: (Strum these chords)

  Em7    D     C     C  

|--0-----2-----3-----3--|
|--3-----3-----1-----1--|
|--0-----2-----0-----0--|
|--2-----------2-----2--|
|--2-----------3-----3--|
|--0--------------------|


Guitar 2:

  Em7           D             C             C

|---------0----------------------------------------------|
|-----0-------------------------------0------------------|
|---0---0-------------------------0----------------------|
|-2-----------------------------2---2--------------------|
|-----------------------------3--------------------------|
|--------------------------------------------------------|

|---------0----------------------------------------------|
|-----0-------------------------------0-------------1--0-|
|---0---0-------------------------0-------------0--------|
|-2-----------------------------2---2---------2---2------|
|-----------------------------3-------------3------------|
|--------------------------------------------------------|

|---------0-------------0--------------------------------|
|-----0-------------3-----------------0-------------1----|
|---0---0---------2---2-----------0-------------0--------|
|-2-------------0---------------2---2---------2---2------|
|-----------------------------3-------------3------------|
|--------------------------------------------------------|




Chorus:

Guitar 1:

   Em    G     D     D
|-----------------------|
|-----------------------|
|--------------7-----7--|
|--2-----5-----7-----7--|
|--2-----5-----5-----5--|
|--0-----3--------------| x2


Guitar 2:

|-----------------------|
|-----------------------|
|--------------7-----10-|
|--2-----5-----7-----x--|
|--2-----5-----5-----8--|
|--0-----3--------------| x2




(Same Verse)




Chorus:

Guitar 1:
[ Tab from: http://www.guitartabs.cc/tabs/a/avril_lavigne/nobodys_home_tab_ver_5.html ]
   Em    G     D     D    
|-----------------------|  
|-----------------------|  
|--------------7-----7--|  
|--2-----5-----7-----7--|  
|--2-----5-----5-----5--|  
|--0-----3--------------|    

|-----------------------------|  
|-----------------------------|  
|--------------7-----7-----7--|  
|--2-----5-----7-----7-----7--|  
|--2-----5-----5-----5-----5--|  
|--0-----3--------------------|

Guitar 2:

|-----------------------|
|-----------------------|
|--------------7-----10-|
|--2-----5-----7-----x--|
|--2-----5-----5-----8--|
|--0-----3--------------| 

|-----------------------------|  
|-----------------------------|  
|--------------7-----7-----10-|  
|--2-----5-----7-----7-----x--|  
|--2-----5-----5-----5-----8--|  
|--0-----3--------------------|




Bridge:

Guitar 1: (Strum these chords)

  Em7    D     C     C  

|--0-----2-----3-----3--|
|--3-----3-----1-----1--|
|--0-----2-----0-----0--|
|--2-----------2-----2--|
|--2-----------3-----3--|
|--0--------------------|

  Em7    D     C     C     C     C

|--0-----2-----3-----3-----3-----3--|
|--3-----3-----1-----1-----1-----1--|
|--0-----2-----0-----0-----0-----0--|
|--2-----------2-----2-----2-----2--|
|--2-----------3-----3-----3-----3--|
|--0--------------------------------|

Guitar 2: (plays something, but don't know what. Just play Guitar 1. Sorry.)




Chorus:

Guitar 1:

   Em    G     D     D
|-----------------------|
|-----------------------|
|--------------7-----7--|
|--2-----5-----7-----7--|
|--2-----5-----5-----5--|
|--0-----3--------------| x3

|-----------------------|
|-----------------------|
|--------------7-----10-|
|--2-----5-----7-----x--|
|--2-----5-----5-----8--|
|--0-----3--------------|


Guitar 2:

|-----------------------|
|-----------------------|
|--------------7-----10-|
|--2-----5-----7-----x--|
|--2-----5-----5-----8--|
|--0-----3--------------| x2

|-----------------------|
|-----------------------|
|--------------7-----7--|
|--2-----5-----7-----7--|
|--2-----5-----5-----5--|
|--0-----3--------------|

|-----------------------|
|-----------------------|
|--------------7-----10-|
|--2-----5-----7-----x--|
|--2-----5-----5-----8--|
|--0-----3--------------|




End:

Guitar 1:

|--0-------|
|---3------|
|----0-----|
|-----2----|
|------2---|
|-------0--|

Guitar 2:

|-----|
|-----|
|-----|
|--2--|
|--2--|
|--0--|


Comments? naz_eric@yahoo.com
Comments