Avril Lavigne - Nobodys Fool Chords & Tabs

 

Nobodys Fool Chords & Tabs

Avril Lavigne Chords & Tabs

Version: 3 Type: Tab 0 ratings
1 star 2 stars 3 stars 4 stars 5 stars
comments

Nobodys Fool Tab

Tabbed by Matt Furlong *Lord Of The Strings*
goes like this dude........ im pretty sure im almost close to being 100% sure
that this is close to being right! anyways...... if i got somethin' wrong or left
out message me on icq 131037979

Intro:   
    
e|---------------------------------------------------------------------------|
B|---------------------------------------------------------------------------|
G|----------9----9------------9----9-------------------------------9---9-----|
D|-------9----9-9-9--------9----9-9-9-----------9-----9---------9---9-9-9----|  
A|---7---------7---7----6--------6---6--------9---9--9-9-----0-------0---0---|
E|-----------------------------------------9-------9----9--------------------|


riff 1   
e|---------------------------------------------------------------------------|
B|---------------------------------------------------------------------------|
G|---9-------9------6------2-------------------------------------------------|
D|---9-x8----9-x8---6-x8---2-x8----------------------------------------------|
A|---7-------6------4------0-------------------------------------------------|
E|---------------------------------------------------------------------------|
pm.................................
[ Tab from: http://www.guitartabs.cc/tabs/a/avril_lavigne/nobodys_fool_tab_ver_3.html ]
 
Chorus  just like riff 1 but no pm
       
e|---------------------------------------------------------------------------|
B|---------------------------------------------------------------------------|
G|-----9-----9-----6-----2---------------------------------------------------|
D|-----9-----9-----6-----2---------------------------------------------------|
A|-----7-----6-----4-----0---------------------------------------------------|
E|---------------------------------------------------------------------------|

solo.........  strum each one about 8 times
e|---------------------------------------------------------------------------|
B|-----17------16-------14--------12-----------------------------------------|
G|---------------------------------------------------------------------------|
D|---------------------------------------------------------------------------|
A|---------------------------------------------------------------------------|
E|---------------------------------------------------------------------------|

Bridge: rite after the solo

        Strum each once
e|---------------------------------------------------------------------------|
B|---------------------------------------------------------------------------|
G|----9-----9-----6-----2----------------------------------------------------|
D|----9-----9-----6-----2----------------------------------------------------|
A|----7-----6-----4-----0----------------------------------------------------|
E|---------------------------------------------------------------------------|

and if you must know......there IS a slide and the end of the song
from 1 to 12 on EAD strings
Comments