Avril Lavigne - Nobodys Fool Chords & Tabs

 

Nobodys Fool Chords & Tabs

Avril Lavigne Chords & Tabs

Version: 1 Type: Tab 0 ratings
1 star 2 stars 3 stars 4 stars 5 stars
comments

Nobodys Fool Tab

-------------------------------------------------------------------------------
			     Nobody's Fool - Avril Lanvigne
-------------------------------------------------------------------------------

By: Dark119

My first tab, sounds right to me though, Good Luck with it.


Intro:   

    Guitar 1    - These are the chords, strumming pattern isn't hard just listen to the 
song.
e|-------------------------------------------------------------------------------|
B|-------------------------------------------------------------------------------|
G|---9-----9-----6----2----------------------------------------------------------|
D|---9-----9-----6----2----------------------------------------------------------|  x2
A|---7-----6-----4----0----------------------------------------------------------|
E|-------------------------------------------------------------------------------| 

    Guitar 2    -  Just play this over guitar one eight times.
e|-----------------------------------------------------------------------------------|
B|-----------------------------------------------------------------------------------|
G|----------9----9-------------------------------------------------------------------|
D|-------9----9-9-9------------------------------------------------------------------|  x8
A|---7---------7---7-----------------------------------------------------------------|
E|-----------------------------------------------------------------------------------|


Verses: 


   Palm Mute all the way through.  Play each eight times.
e|-----------------------------------------------------------------------------------------|
B|-----------------------------------------------------------------------------------------|
G|---9-------9------6------2---------------------------------------------------------------|
D|---9-x8----9-x8---6-x8---2-x8------------------------------------------------------------|
A|---7-------6------4------0---------------------------------------------------------------|
E|-----------------------------------------------------------------------------------------|


Solo thing in the backroud of Verse 2:


   Sounds like hes using an echo effect, some thing like Triplet, just pick it right and it sounds ok though.
e|----------------------------------------------------------------------------------------------------|
B|-------------------------------17-x3--16-x2--14-x2--12-x2-------------------------------------------|
G|---9-x12 (fast, fade out)---------------------------------9-x6(lightly hit, fade in)-9h11p9-9-x8----|
D|----------------------------------------------------------------------------------------------------|
A|----------------------------------------------------------------------------------------------------|
E|----------------------------------------------------------------------------------------------------|
Note: If you have echo effect its a lot easier, just try hitting it a couple of times, its easy to figure out.


Pre-Chorus (The La La thingy part): 
[ Tab from: http://www.guitartabs.cc/tabs/a/avril_lavigne/nobodys_fool_tab.html ]
    Just like the intro with a different strumming pattern.  Strum this lightly too.
e|---------------------------------------------------------------------------|
B|---------------------------------------------------------------------------|
G|----9----9----6----2-------------------------------------------------------|
D|----9----9----6----2--(strum the last one only once)-----------------------|
A|----7----6----4----0-------------------------------------------------------|
E|---------------------------------------------------------------------------|


Chorus:

       Just like the La La's except louder, so don't strum lightly.  
(I can faintly hear the Intro picking too, up to you if you have another guitarist to do that)
e|-----------------------------------------------------------------------------------------------------|
B|-----------------------------------------------------------------------------------------------------|
G|-----9-----9-----6-----2-----------------------------------------------------------------------------|
D|-----9-----9-----6-----2----(First and second time through strum the last chord all the way through,-|
A|-----7-----6-----4-----0-------on the second time only strum last chord once, like the La La's)------|
E|-----------------------------------------------------------------------------------------------------|

The Ohhh Ohhh thingy, before the bridge.
e|---------------------------------------------------------------------------|
B|-----17-x8-17-19--19--17-x8-17-19-19-17------------------------------------|
G|---------------------------------------------------------------------------|
D|---------------------------------------------------------------------------|
A|---------------------------------------------------------------------------|
E|---------------------------------------------------------------------------|

Bridge:

        Strum each once
e|---------------------------------------------------------------------------|
B|---------------------------------------------------------------------------|
G|----9-----9-----6-----2----------------------------------------------------|
D|----9-----9-----6-----2----------------------------------------------------|
A|----7-----6-----4-----0----------------------------------------------------|
E|---------------------------------------------------------------------------|

Outro:

      After the the last chorus just play this the whole way through
e|---------------------------------------------------------------------------|
B|---------------------------------------------------------------------------|
G|----9-----9-----6----2-----------------------------------------------------|
D|----9-----9-----6----2--(Same strumming pattern as chorus)-----------------|
A|----7-----6-----4----0-----------------------------------------------------|
E|---------------------------------------------------------------------------|

    End on this and hold it. 
e|------------------------------------------------------------------------------------------------------|
B|------------------------------------------------------------------------------------------------------|
G|----9-------------------------------------------------------------------------------------9-----------|
D|----9----(If you want the bass effect of the slide with out a bass, end on this --->) ----9-----------|
A|----7-------------------------------------------------------------------------------------6----6/7----|
E|------------------------------------------------------------------------------------------------------|
Comments