Avril Lavigne - Im With You Chords & Tabs

 

Im With You Chords & Tabs

Avril Lavigne Chords & Tabs

Version: 2 Type: Tab 0 ratings
1 star 2 stars 3 stars 4 stars 5 stars
comments

Im With You Tab

Tabbed by: Matthew Chumley
2/24/03
This Tab i kindof found while i was messing around with some power chords!
[ Tab from: http://www.guitartabs.cc/tabs/a/avril_lavigne/im_with_you_tab_ver_2.html ]
You can palm mute it if you want
e|---------------------------------------------------------------------------|
B|---------------------------------------------------------------------------|
G|---------------------------------------------------------------------------|
D|-7-7-7---9-9-9---12-12-12-11h12p11-----------------------------------------|x2
A|-7-7-7---9-9-9---10-10-10--------------------------------------------------|
E|-5-5-5---7-7-7---10-10-10--------------------------------------------------|

-OR-

e|---------------------------------------------------------------------------|
B|---------------------------------------------------------------------------|
G|-2-2-2---4-4-4---7-7-7--6h7p6----------------------------------------------|
D|-2-2-2---4-4-4---7-7-7-----------------------------------------------------|x2
A|-0-0-0---2-2-2---5-5-5-----------------------------------------------------|
E|---------------------------------------------------------------------------|
Comments