Avril Lavigne - Im With You Chords & Tabs

 

Im With You Chords & Tabs

Avril Lavigne Chords & Tabs

Version: 1 Type: Tab 0 ratings
1 star 2 stars 3 stars 4 stars 5 stars
comments

Im With You Tab

Im With You   Tabbed By Matt Furlong *Lord Of The Strings*
I LUV AVRIL!
Any questions about this tab, or you wanna correct me of somethin' my icq # is
131037979 and like, enjoy!

listen to the song for strummin' patterens

Intro:

e|-0---0---0---------
B|-0---0---0---------
G|-2---4---7---------  X4
D|-2---4---7---------
A|-0---2---5---------
E|-----0---0---------

verse 1 and the intro are the same



Im standing on the bridge
All alone in the dark, I thought that you'd be here by now
There's nothing  but the rain, no footsteps on the ground
Been listing, but theres no sound.
     

Pre Chorus

e|-0------0-----0----0---------------
B|-0------0-----0----0---------------
G|-9------11----9----11--------------
D|-9------11----9----11--------------
A|-7------9-----7----9---------------
E|-----------------------------------


[ Tab from: http://www.guitartabs.cc/tabs/a/avril_lavigne/im_with_you_tab.html ]
Isn't anyone trying to find me

Wont somebody come take me home!!!



Chorus:

e---0---0------
B---0---0------
G---9---7------  
D---9---7------
A---7---5------
E--------------

Its a Damn Cold NIght, Trying to figure out this life
Take me by the hand, Take me somewhere new,
I dont know who you are, but Im with you


Verse 2 is the same as verse 1

Im looking for a place, searching for a face
is there anybody here I know
Nothings going right, everythings a mess
and no one likes to be alone.


Pre Chorus 

Chorus



Bridge:

e----0--0----0---0---0--------------------------
B----0--0----0---0---0--------------------------
G----9--11---9---7---9--------------------------
D----9--11---9---7---9--------------------------
A----7--9----7---5---7--------------------------
E-----------------------------------------------


Chorus

Chorus
Comments