Avril Lavigne - Im With You Chords & Tabs

 

Im With You Chords & Tabs

Avril Lavigne Chords & Tabs

Version: 1 Type: Bass Tab 0 ratings
1 star 2 stars 3 stars 4 stars 5 stars
comments

Im With You Bass Tab

Avril Lavigne - I'm With You
~~~~~~~~~~~~~~~~~~~~~~~~~~~~
Tabbed by Brent (mo_munky@yahoo.com)
Found at Anything But Ordinary (http://www.comeunglued.com/avril/)
Tuning - Standard tuning EADG

Here's this thing i came up with that you can play in 
the intro that isnt what he plays but it sounds kool

G----12/14---/16---/18----\14----
D--------------------------------  kind of play along wiht the 
A--------------------------------  chello or whatever it is
E--------------------------------
[ Tab from: http://www.guitartabs.cc/tabs/a/avril_lavigne/im_with_you_btab.html ]
Its a damn cold night.....
G--------------------------  X  3
D--------------------------
A--------------------------
E--5-----8---0-----0--3----

G------------------------ X3
D------------------------
A------------------------
E---5-----2----0---0--3--

Verse
G-------------------
D-------------------
A-------------------
E--5----0------0-3--

Then there's this part were he does something like this
G---------------------------
D---------------------------
A---------------------------
E---5---2---0---0-2-3--5----


That's the whole song just those parts
Comments