Avril Lavigne - I Dont Give Chords & Tabs

 

I Dont Give Chords & Tabs

Avril Lavigne Chords & Tabs

Version: 2 Type: Tab 0 ratings
1 star 2 stars 3 stars 4 stars 5 stars
comments

I Dont Give Tab

   
-------------------------------------------------------------------------
			 I dont give a damn - Avril Lavigne
-------------------------------------------------------------------------

Tabbed by: Andrew Hedstrom
Email: Hedstrom_korn@hotmail.com

This song is almost for sure correct, but there isnt much guitar to it.  it's a good
song but theres not that much guitar to it.

level difficulty: 4 or 6

Tuning:E-A-D-G-B-E

e|------------------------------------------|
B|------------------------------------------|
G|------------------------------------------| then go to part 2 rite away
D|--10-12-10-----------10-12-10-------------|
A|------------13-10--------------13^--11-10-|
E|------------------------------------------|
                   ^ wiggle this 10
Part 2:
e|------------------------------------------------------------|
B|------------------------------------------------------------|
G|------------------------------------------------------------|
D|--10-12-10--------------------------------------------------|
A|-----------13-10---------------13^---11-10------------------|
E|------------------------------------------------------------|
                 ^ wiggle 10     ^give mad bending on 13
[ Tab from: http://www.guitartabs.cc/tabs/a/avril_lavigne/i_dont_give_tab_ver_2.html ]
Chorus -try playing in Sticcado (stick-ah-doe) a.k.a. short choppy strums.
e|-----------------------------------------|
B|-----------------------------------------|  play 2 times,
G|--8-8-8-8-8-8-8-8------------------------|  then go to part 2
D|--8-8-8-8-8-8-8-8-6-6-6-6-6-8-8-8-8-8----|
A|--6-6-6-6-6-6-6-6-6-6-6-6-6-8-8-8-8-8----|
E|------------------4-4-4-4-4-6-6-6-6-6----|

Chorus part 2 "im not gonna cry"
e|------------------------------------|
B|------------------------------------|
G|--5-5-5-5-5-5-5-5-------------------|  <---------part 2        
D|--5-5-5-5-5-5-5-5-6-6-6-6-8-8-8-8---|
A|--3-3-3-3-3-3-3-3-6-6-6-6-8-8-8-8---|
E|------------------4-4-4-4-6-6-6-6---|

Ending  -just play the this over and over till the song ends.
e|-----------------------------------------|
B|-----------------------------------------|  
G|--8-8-8-8-8-8-8-8------------------------| 
D|--8-8-8-8-8-8-8-8-6-6-6-6-6-8-8-8-8-8----| ending
A|--6-6-6-6-6-6-6-6-6-6-6-6-6-8-8-8-8-8----|
E|------------------4-4-4-4-4-6-6-6-6-6----|

*this is all the information you need to get started on the song.  You will need to
arrange them the way the song goes.  a good refference would be to listen to the CD.

| /  slide up
| \  slide down
| h  hammer-on
| p  pull-off
| ~  vibrato
| +  harmonic
| x  Mute note
===========================================================================
Comments