Avril Lavigne - How Does It Feel Chords & Tabs

 

How Does It Feel Chords & Tabs

Avril Lavigne Chords & Tabs

Version: 1 Type: Tab 0 ratings
1 star 2 stars 3 stars 4 stars 5 stars
comments

How Does It Feel Tab

   
----------------------------------------------------------------------------
			     how does it feel - Avril Lavigne
----------------------------------------------------------------------------
Tabbed by: Andrew Hedstrom
Email: Hedstrom_korn@hotmail.com

-i apologize for not knowing the rest of the song.  for me its too quiet to be able to
tab.  but heres the smoothe guitar riff that plays throughout the song. This is the
intro and one riff later on into the song

Tuning:E-A-D-G-B-E

Intro- Palm mute this part on an acustic guitar.                                         
e|------------------------------------------------------------------------|
B|------------------------------------------------------------------------|
G|------------------------------------------------------------------------|
D|--7-7-7-7-7-7-7-7-----10-10-10-10-10-10-10-10---------------------------|
A|--7-7-7-7-7-7-7-7-----10-10-10-10-10-10-10-10---------------------------|
E|--5-5-5-5-5-5-5-5-----8--8--8--8--8--8--8--8----------------------------|

[ Tab from: http://www.guitartabs.cc/tabs/a/avril_lavigne/how_does_it_feel_tab.html ]
This is now electric.                                Wiggle 9 a little 
e|-------------------------------------------------------------------------|
B|-----15-----------15----------------17-------------17--------------------|
G|--17----12~----17----12~---------19----12~------19----12~----10/9--------|
D|-------------------------------------------------------------------------|
A|-------------------------------------------------------------------------|
E|-------------------------------------------------------------------------|

Electric part at 2:05  i am small and the world is big...
e|-------------------------------------------------------------------------|
B|-------------------------------------------------------------------------|
G|-------------------------------------------------------------------------|
D|-----7~------10~-----7~-------10~----------------------------------------|
A|----7-~----10--~----7-~-----10--~----------------------------------------|
E|---5--~---8----~---5--~----8----~----------------------------------------|
Use one slow strum to play, not single plucking


-this song is pretty neat, i tabbed it because i am in a band similar to Avril's and i
needed some practice in that kind of music.

| /  slide up
| \  slide down
| h  hammer-on
| p  pull-off
| ~  vibrato
| +  harmonic
| x  Mute note
============================================================================
Comments