Avril Lavigne - He Wasnt Chords & Tabs

 

He Wasnt Chords & Tabs

Avril Lavigne Chords & Tabs

Version: 1 Type: Tab 3 ratings
1 star 2 stars 3 stars 4 stars 5 stars
comments

He Wasnt Tab

AVRIL LAVIGNE
HE WASN'T
(UNDER MY SKIN)
TABBED BY SIMON RICHARDS (DELONGE_HOPPUS@HOTMAIL.COM)

I AM NOT 100% SURE ON THIS TAB BUT I FIGURED SEEIN AS NOONE ELSE HAS ATTEMPTED IT I THOUGHT ID HAVE A GO
SOUNDS EXCELLENT GOOD TRACK TOO, ENJOY.

Intro
E|-----------------------|-----------------------|-----------------------|-----------------------|
B|--8--------------------|--8--------------------|--6--------------------|--6--------------------|
G|--7-----7--7--7--7-----|--7-----7--7--7--7-----|--5-----5--5--5--5-----|--5-----5--5--5--5-----|
D|--5-----5--5--5--5--5--|--5-----5--5--5--5--5--|--3-----3--3--3--3--3--|--3-----3--3--3--3--3--|
A|-----5--5--5--5--5--5--|-----5--5--5--5--5--5--|-----3--3--3--3--3--3--|-----3--3--3--3--3--3--|
E|-----------------------|-----------------------|-----------------------|-----------------------|

Verse
E|-----------------------|-----------------------|-----------------------|-----------------------|---------|
B|--8--------------------|--8--------------------|--6--------------------|--6--------------------|---------|
G|--7-----7--7--7--7-----|--7-----7--7--7--7-----|--5-----5--5--5--5-----|--5-----5--5--5--5-----|--5-5-5--|
D|--5-----5--5--5--5--5--|--5-----5--5--5--5--5--|--3-----3--3--3--3--3--|--3-----3--3--3--3--3--|---------|
A|-----5--5--5--5--5--5--|-----5--5--5--5--5--5--|-----3--3--3--3--3--3--|-----3--3--3--3--3--3--|---------|
E|-----------------------|-----------------------|-----------------------|-----------------------|---------|

E|-----------------------|-----------------------|-----------------------|-----------------------|--8-8-8--|
B|--8--------------------|--8--------------------|--6--------------------|--6--------------------|--x-x-x--|
G|--7-----7--7--7--7-----|--7-----7--7--7--7-----|--5-----5--5--5--5-----|--5-----5--5--5--5-----|--5-5-5--|
D|--5-----5--5--5--5--5--|--5-----5--5--5--5--5--|--3-----3--3--3--3--3--|--3-----3--3--3--3--3--|---------|
A|-----5--5--5--5--5--5--|-----5--5--5--5--5--5--|-----3--3--3--3--3--3--|-----3--3--3--3--3--3--|---------|
E|-----------------------|-----------------------|-----------------------|-----------------------|---------|

E|-----------------------|-----------------------|-----------------------|-----------------------|--8-8-8--|
B|--8--------------------|--8--------------------|--6--------------------|--6--------------------|--x-x-x--|
G|--7-----7--7--7--7-----|--7-----7--7--7--7-----|--5-----5--5--5--5-----|--5-----5--5--5--5-----|--5-5-5--|
D|--5-----5--5--5--5--5--|--5-----5--5--5--5--5--|--3-----3--3--3--3--3--|--3-----3--3--3--3--3--|---------|
A|-----5--5--5--5--5--5--|-----5--5--5--5--5--5--|-----3--3--3--3--3--3--|-----3--3--3--3--3--3--|---------|
E|-----------------------|-----------------------|-----------------------|-----------------------|---------|

E|---------------|--------------|-----------|----------------|----------------|-----------|--8b-8b-8b-|
B|---------------|--------------|-----------|----------------|----------------|-----------|--x--x--x--|
G|---------------|--------------|--hm-hm-hm-|----------------|----------------|--hm-hm-hm-|--5--5--5--|
D|--8---8--x--x--|--7--x--x--x--|--x--x--x--|--3------2------|--3------2------|--x--x--x--|-----------|
A|--8---8--x--x--|--7--x--x--x--|--x--x--x--|--3->->--2->->--|--3->->--2->->--|--x--x--x--|-----------|
E|--6---6--x--x--|--5--x--x--x--|--x--x--x--|--1------0------|--1------0------|--x--x--x--|-----------|

Chorus
E|--------------------------|--------------------------|--5-5-5--|
B|--------------------------|--------------------------|--x-x-x--|
G|--7--7--7--7--7--7--7--7--|--------------------------|--2-2-2--|
D|--7--7--7--7--7--7--7--7--|--5--5--5--5--5--5--5--5--|---------|
A|--5--5--5--5--5--5--5--5--|--5--5--5--5--5--5--5--5--|---------|
E|--------------------------|--3--3--3--3--3--3--3--3--|---------|

E|--------------------------|--------------------------|--5b-5b-5b-|
B|--------------------------|--------------------------|--x--x--x--|
G|--7--7--7--7--7--7--7--7--|--------------------------|--2--2--2--|
D|--7--7--7--7--7--7--7--7--|--5--5--5--5--5--5--5--5--|-----------|
A|--5--5--5--5--5--5--5--5--|--5--5--5--5--5--5--5--5--|-----------|
E|--------------------------|--3--3--3--3--3--3--3--3--|-----------|

Bridge
E|-----------------------------------------|---------|-----------------------------------------|-----------|
B|-----------------------------------------|---------|-----------------------------------------|-----------|
G|--7--7--7--7--7--7--7--7--7--7--7--7--7--|--6-h-7--|--7--7--7--7--7--7--7--7--7--7--7--7--7--|-----------|
D|--7--7--7--7--7--7--7--7--7--7--7--7--7--|--7---7--|--7--7--7--7--7--7--7--7--7--7--7--7--7--|-----------|
A|--5--5--5--5--5--5--5--5--5--5--5--5--5--|--4-h-5--|--5--5--5--5--5--5--5--5--5--5--5--5--5--|--/-/-/-/--|
E|-----------------------------------------|---------|-----------------------------------------|-----------|
pm  -  -  -  -  -  -  -  -  -  -  -  -  -               -  -  -  -  -  -  -  -  -  -  -  -  -

Verse
E|-----------------------|-----------------------|--8-8-8--|
B|--6--------------------|--6--------------------|--x-x-x--|
G|--5-----5--5--5--5-----|--5-----5--5--5--5-----|--5-5-5--|
D|--3-----3--3--3--3--3--|--3-----3--3--3--3--3--|---------|
A|-----3--3--3--3--3--3--|-----3--3--3--3--3--3--|---------|
E|-----------------------|-----------------------|---------|

E|-----------------------|-----------------------|-----------------------|-----------------------|---------|
B|--8--------------------|--8--------------------|--6--------------------|--6--------------------|---------|
G|--7-----7--7--7--7-----|--7-----7--7--7--7-----|--5-----5--5--5--5-----|--5-----5--5--5--5-----|--5-5-5--|
D|--5-----5--5--5--5--5--|--5-----5--5--5--5--5--|--3-----3--3--3--3--3--|--3-----3--3--3--3--3--|---------|
A|-----5--5--5--5--5--5--|-----5--5--5--5--5--5--|-----3--3--3--3--3--3--|-----3--3--3--3--3--3--|---------|
E|-----------------------|-----------------------|-----------------------|-----------------------|---------|
[ Tab from: http://www.guitartabs.cc/tabs/a/avril_lavigne/he_wasnt_tab.html ]
E|-----------------------|-----------------------|-----------------------|-----------------------|--8-8-8--|
B|--8--------------------|--8--------------------|--6--------------------|--6--------------------|--x-x-x--|
G|--7-----7--7--7--7-----|--7-----7--7--7--7-----|--5-----5--5--5--5-----|--5-----5--5--5--5-----|--5-5-5--|
D|--5-----5--5--5--5--5--|--5-----5--5--5--5--5--|--3-----3--3--3--3--3--|--3-----3--3--3--3--3--|---------|
A|-----5--5--5--5--5--5--|-----5--5--5--5--5--5--|-----3--3--3--3--3--3--|-----3--3--3--3--3--3--|---------|
E|-----------------------|-----------------------|-----------------------|-----------------------|---------|

E|-----------------------|-----------------------|
B|--8--------------------|--8--------------------|
G|--7-----7--7--7--7-----|--7-----7--7--7--7-----|
D|--5-----5--5--5--5--5--|--5-----5--5--5--5--5--|
A|-----5--5--5--5--5--5--|-----5--5--5--5--5--5--|
E|-----------------------|-----------------------|

E|---------------|--------------|-----------|----------------|----------------|-----------|
B|---------------|--------------|-----------|----------------|----------------|-----------|
G|---------------|--------------|--hm-hm-hm-|----------------|----------------|--hm-hm-hm-|
D|--8---8--x--x--|--7--x--x--x--|--x--x--x--|--3------2------|--3------2------|--x--x--x--|
A|--8---8--x--x--|--7--x--x--x--|--x--x--x--|--3->->--2->->--|--3->->--2->->--|--x--x--x--|
E|--6---6--x--x--|--5--x--x--x--|--x--x--x--|--1------0------|--1------0------|--x--x--x--|

Chorus
E|--------------------------|--------------------------|--5-5-5--|
B|--------------------------|--------------------------|--x-x-x--|
G|--7--7--7--7--7--7--7--7--|--------------------------|--2-2-2--|
D|--7--7--7--7--7--7--7--7--|--5--5--5--5--5--5--5--5--|---------|
A|--5--5--5--5--5--5--5--5--|--5--5--5--5--5--5--5--5--|---------|
E|--------------------------|--3--3--3--3--3--3--3--3--|---------|

E|--------------------------|--------------------------|--5b-5b-5b-|
B|--------------------------|--------------------------|--x--x--x--|
G|--7--7--7--7--7--7--7--7--|--------------------------|--2--2--2--|
D|--7--7--7--7--7--7--7--7--|--5--5--5--5--5--5--5--5--|-----------|
A|--5--5--5--5--5--5--5--5--|--5--5--5--5--5--5--5--5--|-----------|
E|--------------------------|--3--3--3--3--3--3--3--3--|-----------|

Bridge
E|-----------------------------------------|-----------------------------------------|
B|-----------------------------------------|-----------------------------------------|
G|--7--7--7--7--7--7--7--7--7--7--7--7--7--|--7--7--7--7--7--7--7--7--7--7--7--7--7--|
D|--7--7--7--7--7--7--7--7--7--7--7--7--7--|--5--5--5--5--5--5--5--5--5--5--5--5--5--|
A|--5--5--5--5--5--5--5--5--5--5--5--5--5--|--5--5--5--5--5--5--5--5--5--5--5--5--5--|
E|-----------------------------------------|-----------------------------------------|
pm  -  -  -  -  -  -  -  -  -  -  -  -  -     -  -  -  -  -  -  -  -  -  -  -  -  -

E|-----------------------------------------|-----------------------------------------|
B|-----------------------------------------|-----------------------------------------|
G|--7--7--7--7--7--7--7--7--7--7--7--7--7--|--7--7--7--7--7--7--7--7--7--7--7--7--7--|
D|--7--7--7--7--7--7--7--7--7--7--7--7--7--|--5--5--5--5--5--5--5--5--5--5--5--5--5--|
A|--5--5--5--5--5--5--5--5--5--5--5--5--5--|--5--5--5--5--5--5--5--5--5--5--5--5--5--|
E|-----------------------------------------|-----------------------------------------|
pm  -  -  -  -  -  -  -  -  -  -  -  -  -     -  -  -  -  -  -  -  -  -  -  -  -  -

Interlude (?not sure on this?) x2
E|---------------------------|---------------------------|
B|---------------------------|---------------------------|
G|---------------------------|---------------------------|
D|--3------7------5------2-5-|--3------7------5------2-5-|
A|--3->->--7->->--5->->--2-3-|--3->->--7->->--5->->--2-3-|
E|--1------5------3------0-3-|--1------5------3------0-3-|

Next x2
E|----------------------------------------------------|
B|----------------------------------------------------|
G|----------------------------------------------------|
D|--3--3--3--3--3--3--3--3----2--2--2--2--2--2--2--2--|
A|--3--3--3--3--3--3--3--3----2--2--2--2--2--2--2--2--|
E|--1--1--1--1--1--1--1--1----0--0--0--0--0--0--0--0--|
pm  -  -  -  -  -  -  -  -    -  -  -  -  -  -  -  -

Chorus
E|--------------------------|--------------------------|--5-5-5--|
B|--------------------------|--------------------------|--x-x-x--|
G|--7--7--7--7--7--7--7--7--|--------------------------|--2-2-2--|
D|--7--7--7--7--7--7--7--7--|--5--5--5--5--5--5--5--5--|---------|
A|--5--5--5--5--5--5--5--5--|--5--5--5--5--5--5--5--5--|---------|
E|--------------------------|--3--3--3--3--3--3--3--3--|---------|
pm  -  -  -  -  -  -  -  -

E|--------------------------|--------------------------|--5b-5b-5b-|
B|--------------------------|--------------------------|--x--x--x--|
G|--7--7--7--7--7--7--7--7--|--------------------------|--2--2--2--|
D|--7--7--7--7--7--7--7--7--|--5--5--5--5--5--5--5--5--|-----------|
A|--5--5--5--5--5--5--5--5--|--5--5--5--5--5--5--5--5--|-----------|
E|--------------------------|--3--3--3--3--3--3--3--3--|-----------|

E|--------------------------|--------------------------|--5-5-5--|
B|--------------------------|--------------------------|--x-x-x--|
G|--7--7--7--7--7--7--7--7--|--------------------------|--2-2-2--|
D|--7--7--7--7--7--7--7--7--|--5--5--5--5--5--5--5--5--|---------|
A|--5--5--5--5--5--5--5--5--|--5--5--5--5--5--5--5--5--|---------|
E|--------------------------|--3--3--3--3--3--3--3--3--|---------|

E|--------------------------|--------------------------|--5b-5b-5b-|
B|--------------------------|--------------------------|--x--x--x--|
G|--7--7--7--7--7--7--7--7--|--------------------------|--2--2--2--|
D|--7--7--7--7--7--7--7--7--|--5--5--5--5--5--5--5--5--|-----------|
A|--5--5--5--5--5--5--5--5--|--5--5--5--5--5--5--5--5--|-----------|
E|--------------------------|--3--3--3--3--3--3--3--3--|-----------|

Bridge x2
E|-----------------------------------------|-----------------------------------------|
B|-----------------------------------------|-----------------------------------------|
G|--7--7--7--7--7--7--7--7--7--7--7--7--7--|--7--7--7--7--7--7--7--7--7--7--7--7--7--|
D|--7--7--7--7--7--7--7--7--7--7--7--7--7--|--7--7--7--7--7--7--7--7--7--7--7--7--7--|
A|--5--5--5--5--5--5--5--5--5--5--5--5--5--|--5--5--5--5--5--5--5--5--5--5--5--5--5--|
E|-----------------------------------------|-----------------------------------------|

Outro
E|-----------------------|
B|-----------------------|
G|-----------------------|
D|--3------7------5------|
A|--3->->--7->->--5->->--|
E|--1------5------3------|

Comments