Avril Lavigne - Freak Out Chords & Tabs

 

Freak Out Chords & Tabs

Avril Lavigne Chords & Tabs

Version: 4 Type: Tab 0 ratings
1 star 2 stars 3 stars 4 stars 5 stars
comments

Freak Out Tab

   
Avril Lavigne - Freak Out
By Rogério Oyama (rogeriooyama@yahoo.com.br)

D#(x688xx) A#(688xxx)
F (133xxx) G (355xxx)
G#(466xxx) C (x355xx)

Intro:
E|-------------------------------------------------|(x2)
B|-------------------------------------------------|
G|---8-8-------------------------------------------|
D|---8-8-------3--3-1h3p1-6--6-------6--6----------|
A|---6-6-6h8p6-3--3-------6--6-6h8p6-6--6-6h8/10\8-|
E|-------------1--1-------4--4-------4--4----------|

D#             F     G#         G#
Try to tell me what I shoudn't do
D#          F     G#                   G#
You shoud know by now I won't listen you
D#      F           G#                G#
Walk around with my hands up in the air
D#     F          G#
Cause I don't care
F                          G G#
Cause I'm all right I'm fine, just freak out, let it go
D#                    A#
I'm gonna live my life 
        C               D#
I can't ever run and hide
           G#
I won't compromise
G#
Cause I'll never know
D#                     A#
I'm gonna close my eyes
           C              D#
I can watch the time go by
            G#
I won't keep it inside
A#
Freak out let it go

E|-------------------------------------------------|(x2)
B|-------------------------------------------------|
G|---8-8-------------------------------------------|
D|---8-8-------3--3-1h3p1-6--6-------6--6----------|
A|---6-6-6h8p6-3--3-------6--6-6h8p6-6--6-6h8/10\8-|
E|-------------1--1-------4--4-------4--4----------|
[ Tab from: http://www.guitartabs.cc/tabs/a/avril_lavigne/freak_out_tab_ver_4.html ]
D#        F            G#    G#
You don't always have to do, everything right
D#     F             G# G#
Stand up for yourself, and put up a fight
D#   F                G#    
Walk around with your hands up in the air
D#    F            G#
Like you don't care
F                          G G#
Cause I'm allright I'm fine, just freak out, let it go
D#                    A#
I'm gonna live my life 
        C                D#
I can't ever run and hide
           G#
I won't compromise, cause I'll never know
D#                     A#
I'm gonna close my eyes
           C              D#
I can watch the time go by
            G#
I won't keep it inside
A#
Freak out let it go

C  A#    G#
On my own
C A# 
Let it go
F         G G#
Yeah yeah yeah yeah yeah yeah
D#                      A#
Just let me live my life 
        C                D#
I can't ever run and hide
           G#
I won't compromise, cause I'll never know
D#                     A#
I'm gonna close my eyes
           C              D#
I can watch the time go by
            G#
I won't keep it inside
A#
Freak out let it go

E|-------------------------------------------------|(x2)
B|-------------------------------------------------|
G|---8-8-------------------------------------------|
D|---8-8-------3--3-1h3p1-6--6-------6--6----------|
A|---6-6-6h8p6-3--3-------6--6-6h8p6-6--6-6h8/10\8-|
E|-------------1--1-------4--4-------4--4----------|

Gonna freak out and let it go
Gonna freak out and let it go
Comments