Avril Lavigne - Dont Tell Me Chords & Tabs

 

Dont Tell Me Chords & Tabs

Avril Lavigne Chords & Tabs

Version: 3 Type: Tab 0 ratings
1 star 2 stars 3 stars 4 stars 5 stars
comments

Dont Tell Me Tab

This is a good song and its nice and easy

Standard Tuning

Intro
e---------12-------------14--------|
b--9-10-12--12-10-9-10-12--12------|
g----------------------------------| Repeat 2x
d----------------------------------|
a----------------------------------|
E----------------------------------|
[ Tab from: http://www.guitartabs.cc/tabs/a/avril_lavigne/dont_tell_me_tab_ver_3.html ]
Main Riff(not the same way she plays it but sounds the same)
e-------------------------------------------|
b---------------------3-3-3333--------------|
g--9-9-9999-6-6-66666-3-3-3333----- Repeat--| 2x
d--9-9-9999-6-6-66666-3-3-3333--------------|
a--7-7-7777-4-4-44444-----------------------|
E-------------------------------------------|

Rate this please!
Comments