Avril Lavigne - Complicated Chords & Tabs

 

Complicated Chords & Tabs

Avril Lavigne Chords & Tabs

Version: 1 Type: Bass Tab 0 ratings
1 star 2 stars 3 stars 4 stars 5 stars
comments

Complicated Bass Tab

Verse: --1-1--1-1---------------------------------------------------------------
       -------------5-5--5-5---1-1--1-1---3-3--3-3------------------------------
       -------------------------------------------------------------------------
       -------------------------------------------------------------------------
       Do this 3 times
[ Tab from: http://www.guitartabs.cc/tabs/a/avril_lavigne/complicated_btab.html ]
Chorus: --------------1-1-------------------------------------------------------
        --5-5---1-1---------3-3-------------------------------------------------
        ------------------------------------------------------------------------
        ------------------------------------------------------------------------
        Do this 3 times, then after the third time do this once:

        --3-3-3-3---------------------------------------------------------------
        ------------1-----------------------------------------------------------
        ------------------------------------------------------------------------
        ------------------------------------------------------------------------

Bridge: --1-1-1-1-1-1-1-1-------------------------------------------------------
        --------------------5-5-5-5-5-5-5-5---1-1-1-1-1-1-1-1---3-3-3-3-3-3-3-3-
        ------------------------------------------------------------------------
        ------------------------------------------------------------------------
Comments