Avril Lavigne - 4 Real Chords & Tabs

 

4 Real Chords & Tabs

Avril Lavigne Chords & Tabs

Version: 1 Type: Bass Tab 0 ratings
1 star 2 stars 3 stars 4 stars 5 stars
comments

4 Real Bass Tab

   
Avril Lavigne
4 Real
Goodbye Lullaby
2011 RCA Records
Submitted by: paramore_fans@yahoo.com

Key: C

Verse 1: If I show you, get to know you...
   C   G    Am   F
G|-5-|-12-|-14-|-10-|
D|---|----|----|----|
A|---|----|----|----|
E|---|----|----|----|

I'm not wanna gonna let go
          C               G
G|-5----5---5---5-|----------------|
D|----5---5---5---|-5----5---5---5-|
A|----------------|----5---5---5---|
E|----------------|----------------|

Tell me you feel the same
         Am               F
G|----------------|----------------|
D|-7----7---7---7-|-3----3---3---3-|
A|----7---7---7---|----3---3---3---|
E|----------------|----------------|


Chorus 1:
Coz I'm for real are you For Real
         Am                 C
G|-----------------|-----------------|
D|-----------------|-----------------|
A|-0-0-0-0-0-0-0-0-|-3-3-3-3-3-3-3-3-|
E|-----------------|-----------------|

When you looked me in the eyes
          G                  F
G|-----------------|-----------------|
D|-----------------|-----------------|
A|-----------------|-----------------|
E|-3-3-3-3-3-3-3-3-|-1-1-1-1-1-1-1-1-|

But it feels so right Cause it feels so right
         Am       G/B         C
G|---------------|---|-----------------|
D|---------------|---|-----------------|
A|-0-0-0-0-0-0-0-|-2-|-3-3-3-3-3-3-3-3-|
E|---------------|---|-----------------|

So donít let me go Cause you have my soul
          G                  F
G|-----------------|-----------------|
D|-----------------|-----------------|
A|-----------------|-----------------|
E|-3-3-3-3-3-3-3-3-|-1-1-1-1-1-1-1-1-|


Verse 2:

I donít wanna look back Cause I know that we have
          C               G
G|-5----5---5---5-|----------------|
D|----5---5---5---|-5----5---5---5-|
A|----------------|----5---5---5---|
E|----------------|----------------|

Something the past could never change
       Am      C/E         F
G|------------|---|----------------|
D|-7----7---7-|-2-|-3----3---3---3-|
A|----7---7---|---|----3---3---3---|
E|------------|---|----------------|
[ Tab from: http://www.guitartabs.cc/tabs/a/avril_lavigne/4_real_btab.html ]
And Iím stuck in the moment And my heart is open
          C               G
G|-5----5---5---5-|----------------|
D|----5---5---5---|-5----5---5---5-|
A|----------------|----5---5---5---|
E|----------------|----------------|

Tell me that you feel the same ohh
       Am      C/E         F
G|------------|---|----------------|
D|-7----7---7-|-2-|-3----3---3---3-|
A|----7---7---|---|----3---3---3---|
E|------------|---|----------------|


Chorus 2:
Coz I'm for real are you For Real
         Am       G/B         C
G|---------------|---|-----------------|
D|---------------|---|-----------------|
A|-0-0-0-0-0-0-0-|-2-|-3-3-3-3-3-3-3-3-|
E|---------------|---|-----------------|

When you looked me in the eyes
          G                 F
G|-----------------|-----------------|
D|-----------------|-----------------|
A|-----------------|-----------------|
E|-3-3-3-3-3-3-3-3-|-1-1-1-1-1-1-1-1-|

But it feels so right Cause it feels so right
         Am       G/B         C
G|---------------|---|-----------------|
D|---------------|---|-----------------|
A|-0-0-0-0-0-0-0-|-2-|-3-3-3-3-3-3-3-3-|
E|---------------|---|-----------------|

So donít let me go Cause you have my soul
          G                  F
G|-----------------|-----------------|
D|-----------------|-----------------|
A|-----------------|-----------------|
E|-3-3-3-3-3-3-3-3-|-1-1-1-1-1-1-1-1-|


Bridge: x2

Hole me down
          G                 Dm
G|-----------------|---------7-7-7-7-|
D|-----------------|-------7---------|
A|-----------------|-5-5-5-----------|
E|-3-3-3-3-3-3-3-3-|-----------------|

Hold Me Now
          Dm                Am
G|---------7-7-7-7-|-----------------|
D|-------7---------|-----------------|
A|-5-5-5-----------|-----------------|
E|-----------------|-5-5-5-5-5-5-5-5-|

I'm safe I'm sound
          G                 Dm
G|-----------------|---------7-7-7-7-|
D|-----------------|-------7---------|
A|-----------------|-5-5-5-----------|
E|-3-3-3-3-3-3-3-3-|-----------------|

When You're around
          Dm                Am
G|---------7-7-7-7-|---------------------|
D|-------7---------|---------------------|
A|-5-5-5-----------|-------7-12-12-12-12-|
E|-----------------|-5-5-5---------------|


(Repeat Chorus 1)
(Repeat Chorus 2)


Outro:
   F
G|---
D|---
A|---
E|-1-
Comments