Average White Band - Play That Funky Music Chords & Tabs

 

Play That Funky Music Chords & Tabs

Average White Band Chords & Tabs

Version: 1 Type: Tab 1 rating
1 star 2 stars 3 stars 4 stars 5 stars
comments

Play That Funky Music Tab

                         Play That Funky Music
                                  by
                              James Brown
gtr. 1
e--------------------------------------------------------------------
b--------------------------------------------------------------------
g--------------------------------------------------------------------
d--------2--0--2-------0-2--------2--0--2-------0-2------------------
a-----------------0h2----------------------0h2-----------------------
e--0--0---------------------0--0-------------------------------------
[ Tab from: http://www.guitartabs.cc/tabs/a/average_white_band/play_that_funky_music_tab.html ]
gtr. 2
e--7-7-7-x-x-x-7-7-9-8-7-7--7-7-7-x-x-x-7/9-9-9-8-7------------------
b--7-7-7-x-x-x-7-7-9-8-7-7--7-7-7-x-x-x-7/9-9-9-8-7------------------
g--7-7-7-x-x-x-7-7-9-8-7-7--7-7-7-x-x-x-7/9-9-9-8-7------------------
d--------------------------------------------------------------------
a--------------------------------------------------------------------
e--------------------------------------------------------------------
he does this for a while and then jumps three frets
in between he does this eight times
gtr. 1
e--------------------------------------------------------------------
b--------------------------------------------------------------------
g--------------------------------------------------------------------
d--2--0--0h2---------------------------------------------------------
a--------------------------------------------------------------------
e--------------------------------------------------------------------

gtr. 2
e--7-7---7-7---------------------------------------------------------
b--7-7---7-7---------------------------------------------------------
g--7-7---7-7---------------------------------------------------------
d--------------------------------------------------------------------
a--------------------------------------------------------------------
e--------------------------------------------------------------------
then he goes back to normal before jumping to the third fret and then
the fifth fret at the very end
i don't know what he does for the solo but in the background gtr.1 and
2 are still doing the same thing as at the first
Comments