Aventura - Un Beso Chords & Tabs

 

Un Beso Chords & Tabs

Aventura Chords & Tabs

Version: 1 Type: Tab

Un Beso Tab

Here's the intro for "Un beso" by Aventura :

|-------------------------0-------------------------------------|
B|-------3-3-3-3-3-3-3/6-3----------------------------0---------|
G|-----0--------------------------2-2-2-2-2-2-2-2/5-2-----------|
D|------------------------------0-------------------------------|
A|---3----------------------------------------------------------|
E|----------------------------3---------------------------------|

e|--15p0-0----13p0-0---12p0-0---10p0-0--------|------0--------|
B|-------------------------------------------·|-----1-1-------|
G|-------------------9--------9----------(3x)·|----0---0------|
D|---------14--------------------------------·|---2-----2-----|
A|--------------------------------------------|--3-------3----|
E|--------------------------------------------|-3---------3---|

 Hay una mujer!
[ Tab from: http://www.guitartabs.cc/tabs/a/aventura/un_beso_tab.html ]
e|---------------------------------7-8-------0h8p0h8p0h8p0h8p0h8p0h8p0----|
B|----------------------------8-10------6-5-------------------------------|
G|---------------------7-9-10---------------------------------------------|
D|--------------7-9-10----------------------------------------------------|
A|-------7-8-10-----------------------------------------------------------|
E|--8-10------------------------------------------------------------------|

Que domina mis sentidos con solo tocar mi piel

e|----10p0----8p0---7p0---5p0---3p0---1p0---3p0-----5-------|
B|----------------------------------------------------------|
G|----------------------------------------------------------|
D|--12--/--10--/--9--/--7--/--5--/--3--/--5--/--7-7---------|
A|----------------------------------------------------------|
E|----------------------------------------------------------|

Y como a mí también

e|-------------------------|
B|-------------------------|
G|-------------------------|
D|------5-5-5-5/8-5-7------|
A|----3--------------------|
E|--1----------------------|

a otro hombre esto le puede sucerder
                                         |===========Tremulo==============|
e|------------------------------------------------------------------------|
B|---------------------0-0-0-0-0------0----0-0-0---0-0-0---0-0-0---0-0-0--|
G|------2-2-2-2-2/-5-2---------------0---0-------0-------0-------3-------0|
D|----0-----------------------------3-------------------------------------|
A|---------------------------------5--------------------------------------|
E|--3-----------------------------3---------------------------------------|