Avenged Sevenfold - We Come Out At Night Chords & Tabs

 

We Come Out At Night Chords & Tabs

Avenged Sevenfold Chords & Tabs

Version: 1 Type: Tab 0 ratings
1 star 2 stars 3 stars 4 stars 5 stars
comments

We Come Out At Night Tab

Artist: Avenged Sevenfold
Title: We Come Out At Night
Album: Sounding The Seventh Trumpet
Guitarists: Zacky Vengeance and Synister Gates
Tabbed by: TheHampsterWheel (Il0v0Il@aol.com)

Both Guitars... Key is...:
SLIGHT Palm Mute
e|---------------------------------------------|
B|---------------------------------------------|
G|-:-:-----:-:-:-:-:-:-:-:-:-:-:-:---------1---| Play
D|-0-0-----0-0-0-1-1-0-1-1-0-0-0-0---------1---|  6x
A|-0-0-----0-0-0-1-1-0-1-1-0-0-0-0---------1---|
D|-0-0-----0-0-0-1-1-0-1-1-0-0-0-0-------------|

Guitar One plays above 4x

Guitar Two:
e|----------------------------------------|
B|----------------------------------------|
G|---/7--8---/10--12--8-7--8--5-3--5--3---| Play
D|----------------------------------------|  2x
A|----------------------------------------|
D|----------------------------------------|

Both Guitars:
e|--------------------------------------------------|
B|--------------------------------------------------| Guitar 2 throws in an 8
G|--------------------------------------------------| with artificial harmonic
D|-1-----/4--3--1-0-------3-----6--4--3-4---7---8---| on the D string instead of
A|-1-----/4--3--1-0-------3-----6--4--3-4---7---8---| an A# power chord
D|-1-----/4--3--1-0-------3-----6--4--3-4---7---8---|

e|------------------------------------------|
B|------------------------------------------|
G|-----::-----------------------------------|
D|-1---11---4--3--1-0-------3-----6--4--3---|
A|-1---11---4--3--1-0-------3-----6--4--3---|
D|-1---11---4--3--1-0-------3-----6--4--3---|

Guitar One:
e|-------------------------------------------------|
B|-------------------------------------------------|
G|---.-------------.-------------.-------------.---| Play
D|-1-1-----------1-1-----------0-0-----------0-0---|  4x
A|-1-1-----------1-1-----------0-0-----------0-0---|
D|-1-1-----------1-1-----------0-0-----------0-0---|

Guitar Two:
e|--------------------------------------------------------------------|
B|--------------------------------------------------------------------|
G|--8-8-8-8---------8-8-8-8---------11-11-11-11---------11-11-11-11---| Play
D|--x-x-x-x---------x-x-x-x----------x--x--x--x----------x--x--x--x---|  4x
A|--6-6-6-6---------6-6-6-6----------9--9--9--9----------9--9--9--9---|
D|--------------------------------------------------------------------|

Both Guitars:
e|-------------------------------------------------|
B|-------------------------------------------------|
G|-3----5----2---:-:-----------:-:-----------:-:---| Play
D|-3----5----2---0-0-----------0-0-----------0-0---|  2x
A|-1----3----0---0-0-----------0-0-----------0-0---|
D|---------------0-0-----------0-0-----------0-0---|

e|---------------------------------------------------------|
B|-----------------------7-------------8-------------7-----|
G|-3----5----2---:-:---7---7---:-:---8---8---:-:---7---7---| Play
D|-3----5----2---0-0-----------0-0-----------0-0-----------|  2x
A|-1----3----0---0-0-----------0-0-----------0-0-----------|
D|---------------0-0-----------0-0-----------0-0-----------|

e|--------------------|
B|--------------------|
G|-3----5----2--------|
D|-3----5----2---0~---|
A|-1----3----0---0~---|
D|---------------0~---|
[ Tab from: http://www.guitartabs.cc/tabs/a/avenged_sevenfold/we_come_out_at_night_tab.html ]
Breakdown... Key Changes to D minor (F major):
e|---------------------------------------------------------------------|
B|---------------------------------------------------------------------|
G|-------------------5-5-5-5-5-5-5-5-----------------------------------|
D|-0-0-0-0-0-0-0-0-0-5-5-5-5-5-5-5-5-3-3-3-3-3-3-----------------------|
A|-0-0-0-0-0-0-0-0-0-3-3-3-3-3-3-3-3-3-3-3-3-3-3-----------------------|------|
D|-0-0-0-0-0-0-0-0-0-----------------3-3-3-3-3-3-2-3-5-3-2-3-5-3-2-3---| Play |
                                                                              |
e|---------------------------------------------------------------------|  2x  |
B|---------------------------------------------------------------------|------|
G|-------------------5-5-5-5-5-5-5-5-----------------:::---:::---:::---|
D|-0-0-0-0-0-0-0-0-0-5-5-5-5-5-5-5-5-3-3-3-3-3-3-3-3-333---222---333---|
A|-0-0-0-0-0-0-0-0-0-3-3-3-3-3-3-3-3-3-3-3-3-3-3-3-3-333---222---333---|
D|-0-0-0-0-0-0-0-0-0-----------------3-3-3-3-3-3-3-3-333---222---333---|

Guitar One... key changes back to whatever:
e|-----------------------------------------------------------------------|
B|-----------------------------------------------------------------------|
G|-----------------------------------------------------------------------| Play
D|-----------------------------------------------------------------------|  4x
A|---/5---------------/5---------------/6---------------/6------7--6-----|
D|-0------6--5--6-1-0------6--5--6-0-1------7--6--7-2-1------6-------1---|

Guitar two:
e|-----------------------------------------------------|
B|-----------------------------------------------------|
G|-.----------------.----------------------------------| Play
D|-0--------------1-0--------------0-1~------------1---|  2x
A|-0--------------1-0--------------0-1~------------1---|
D|-0--------------1-0--------------0-1~------------1---|

Both Gutiars
e|-----------------------------------------------|
B|-----------------------------------------------|
G|-:::---:::---::-------------:::---:::---::-----| Play
D|-000---000---000~-----------111---111---111~---|  4x
A|-000---000---000~-----------111---111---111~---|
D|-000---000---000~-----------111---111---111~---|

e|-----------------------------------|
B|-----------------------------------|
G|-----------------------------------|
D|-0-0---0-1---4---1p0---0-0-1-3-4---|
A|-0-0---0-1---4---1p0---0-0-1-3-4---|------|
D|-0-0---0-1---4---1p0---0-0-1-3-4---| Play |
                                            |
e|-----------------------------------|  2x  |
B|-----------------------------------|------|
G|-----------------------------------|
D|-0-0---0-1---4---1p0---0-0-----1---|
A|-0-0---0-1---4---1p0---0-0-3-5-----|
D|-0-0---0-1---4---1p0---0-0---------|

e|-------------------------------------|
B|-------------------------------------|
G|---.---.---.-------.-----------------|
D|-0-0---0---0---0-0-0---x-x-------1---|
A|-0-0---0---0---0-0-0---x-x-2-3-5-----|
D|-0-0---0---0---0-0-0---x-x-----------|

e|-------------------------------------|
B|-------------------------------------|
G|-------.---.-------.-----------------| Play
D|-0-0-0-0---0---0-0-0---x-x-------1---| 3x
A|-0-0-0-0---0---0-0-0---x-x-2-3-5-----|
D|-0-0-0-0---0---0-0-0---x-x-----------|

e|------|
B|------|
G|------|
D|-0~---|
A|-0~---|
D|-0~---|

e|-------------------|
B|-------------------|
G|-:::---:::---:::---|
D|-333---222---333---|
A|-333---222---333---|
D|-333---222---333---|

Breakdown... Key Changes again to D minor (F major):
e|---------------------------------------------------------------------|
B|---------------------------------------------------------------------|
G|-------------------5-5-5-5-5-5-5-5-----------------------------------|
D|-0-0-0-0-0-0-0-0-0-5-5-5-5-5-5-5-5-3-3-3-3-3-3-----------------------|
A|-0-0-0-0-0-0-0-0-0-3-3-3-3-3-3-3-3-3-3-3-3-3-3-----------------------|------|
D|-0-0-0-0-0-0-0-0-0-----------------3-3-3-3-3-3-2-3-5-3-2-3-5-3-2-3---| Play |
                                                                              |
e|---------------------------------------------------------------------|  2x  |
B|---------------------------------------------------------------------|------|
G|-------------------5-5-5-5-5-5-5-5-----------------:::---:::---:::---|
D|-0-0-0-0-0-0-0-0-0-5-5-5-5-5-5-5-5-3-3-3-3-3-3-3-3-333---222---333---|
A|-0-0-0-0-0-0-0-0-0-3-3-3-3-3-3-3-3-3-3-3-3-3-3-3-3-333---222---333---|
D|-0-0-0-0-0-0-0-0-0-----------------3-3-3-3-3-3-3-3-333---222---333---|

End.

Rate, comment.
Comments