Avenged Sevenfold - Victim Solo Chords & Tabs

 

Avenged Sevenfold Chords & Tabs

Version: 3 Type: Tab 0 ratings
1 star 2 stars 3 stars 4 stars 5 stars
comments

Victim Solo Tab

   
-------------------------------------------------------------------------------
			     Victim (Solo) - Avenged Sevenfold
-------------------------------------------------------------------------------
Tabbed by: Michael Cheng (meakel)
Email: meakelx@live.com

Tuning: The song itself is in Drop C, but the solo can be played in Standard.
I find it easier to play in Drop D, So this tab will be in Drop D so that it
can be easily transposed.

This song actually contains two solos, with a bit of an interlude between.
This tab will cover both.


::::::::::::::::::::::::::::::::::::::::::::::::::::::::::::::::::::::::::::::
SOLO 1:
::::::::::::::::::::::::::::::::::::::::::::::::::::::::::::::::::::::::::::::

e|----------10-11-10---------------------------------------------------------|
B|--/13--13----------13----/11-9-9h11\4-6-8--8h9p8p6-6---6-------------------|
G|----------------------12-----------------------------8---------------------|
D|---------------------------------------------------------------------------|
A|---------------------------------------------------------------------------|
D|---------------------------------------------------------------------------|

e|----------6h9/15--15p13----------------------------------------------------|
B|----6h8h9---------------16p13-16b18--16p13---------------------------------|
G|--8----------------------------------------15p12------15b17----------------|
D|-------------------------------------------------15p13---------------------|
A|---------------------------------------------------------------------------|
D|---------------------------------------------------------------------------|

e|-------------13h14h15-------------13h14h15h--------------13h14h15/20-------|
B|--13h14h15h16----------13h14h15h16------------13h14h15h16------------------|
G|---------------------------------------------------------------------------|
D|---------------------------------------------------------------------------|
A|---------------------------------------------------------------------------|
D|---------------------------------------------------------------------------|

::::::::::::::::::::::::::::::::::::::::::::::::::::::::::::::::::::::::::::::
SOLO 2:
::::::::::::::::::::::::::::::::::::::::::::::::::::::::::::::::::::::::::::::
[ Tab from: http://www.guitartabs.cc/tabs/a/avenged_sevenfold/victim_solo_tab_ver_3.html ]
e|-----------------------------------------------------------------------------|
B|--15b16-16-16-16b15-16------------16-----------------------------------------|
G|-----------------------15----15b17--17r15-12-15/17-15------------------------|
D|--------------------------17-------------------------------------------------|
A|-----------------------------------------------------------------------------|
D|-----------------------------------------------------------------------------|

e|---------------------------------------------------------------------------|
B|---------------------------------------------------------------------------|
G|------------------------------------------------/15-15-13-15/20------------|
D|--15b16-15-15b16-13----13-15p13-15b16-13----13-----------------------------|
A|--------------------15-------------------15--------------------------------|
D|---------------------------------------------------------------------------|

e|--------18-----------------------------------------------------------------|
B|--18b20----20r18-16--------------------------------------------------------|
G|--------------------15-----------------------------------------------------|
D|-----------------------17--------------------------------------------------|
A|---------------------------------------------------------------------------|
D|---------------------------------------------------------------------------|

[The Incredibly Fast Bit]
e|---------------------------------------------------------------------------|
B|--20-16----20----16--------------------------------------------------------|
G|--------19----19----19-15-19\15-12-15-12--15--12---------------------------|
D|----------------------------------------15--13--13p12-13p12----------------|
A|------------------------------------------------------------13-------------|
E|--------------------------------------------------------------15p13h15/17--|

e|---------------------------------------------------------------------------|
B|------------------------------------------15--16p15------------------------|
G|------------------------15-------17-----------------17---------------------|
D|--12-13p12-13/15-----12-------13-------15----------------------------------|
A|------------------13-------13-------13-------------------------------------|
E|---------------------------------------------------------------------------|

e|--------18/20-20p18-------------18/20-20-18-16-16b18-16-16h18-----16-17p16-|
B|-----16-------------16-------16------------------------------16-18---------|
G|--17-------------------17-17-----------------------------------------------|
D|---------------------------------------------------------------------------|
A|---------------------------------------------------------------------------|
E|---------------------------------------------------------------------------|

************************************

| /   slide up
| \   slide down
| h   hammer-on
| p   pull-off
| ~   vibrato
| +   harmonic
| x   Mute note
| b   Bend
| pb  Pre-bend
| br  Bend release
| pbr Pre-bend release
| brb Bend release bend

************************************
Comments