Avenged Sevenfold - Trashed And Scattered Chords & Tabs

 

Trashed And Scattered Chords & Tabs

Avenged Sevenfold Chords & Tabs

Version: 3 Type: Bass Tab 0 ratings
1 star 2 stars 3 stars 4 stars 5 stars
comments

Trashed And Scattered Bass Tab

   
G|-----------------------------------------------------------------|
D|-----------------------------------------------------------------|
A|-5---------------1-----------------------5-------4---7---5-------|
D|---------------------------------3-------------------------------|
   1 + 2 + 3 + 4 + 1 + 2 + 3 + 4 + 1 + 2 + 3 + 4 + 1 + 2 + 3 + 4 +

Verse 0:04
G|-----------------------------------------------------------------|
D|-----------------------------------------------------------------|
A|-5-55-55-5-55-55-5-55-55-5-55-55-3-33-33-3-33-33-3-33-33-3-33-33-|
D|-----------------------------------------------------------------|
   1 + 2 + 3 + 4 + 1 + 2 + 3 + 4 + 1 + 2 + 3 + 4 + 1 + 2 + 3 + 4 +

G|-----------------------------------------------------------------|
D|-----------------------------------------------------------------|
A|-1-11-11-1-11-11-1-11-11-1-11-11-----------------0-00-00-4-44-44-|
D|---------------------------------3-33-33-3-33-33-----------------|
   1 + 2 + 3 + 4 + 1 + 2 + 3 + 4 + 1 + 2 + 3 + 4 + 1 + 2 + 3 + 4 +

G|-----------------------------------------------------------------|
D|-----------------------------------------------------------------|
A|-5-55-55-5-55-55-5-55-55-5-55-55-3-33-33-3-33-33-3-33-33-3-33-33-|
D|-----------------------------------------------------------------|
   1 + 2 + 3 + 4 + 1 + 2 + 3 + 4 + 1 + 2 + 3 + 4 + 1 + 2 + 3 + 4 +

G|-----------------------------------------------------------------|
D|---------------------------------3-3-2-2-----------------2-2-5-5-|
A|-1-11-11-1-11-11-1-11-11-1-11-11---------5-5-3-3-0-0-4-4---------|
D|-----------------------------------------------------------------|
   1 + 2 + 3 + 4 + 1 + 2 + 3 + 4 + 1 + 2 + 3 + 4 + 1 + 2 + 3 + 4 +

0:26
G|-----------------------------------------------------------------|
D|-----------------------------------------------------------------|
A|-5-55-55-5-55-55-5-55-55-5-55-55-3-33-33-3-33-33-3-33-33-3-33-33-|
D|-----------------------------------------------------------------|
   1 + 2 + 3 + 4 + 1 + 2 + 3 + 4 + 1 + 2 + 3 + 4 + 1 + 2 + 3 + 4 +

G|-----------------------------------------------------------------|
D|-----------------------------------------------------------------|
A|-1-11-11-1-11-11-1-11-11-1-11-11-----------------0-00-00-4-44-44-|
D|---------------------------------3-33-33-3-33-33-----------------|
   1 + 2 + 3 + 4 + 1 + 2 + 3 + 4 + 1 + 2 + 3 + 4 + 1 + 2 + 3 + 4 +

G|-----------------------------------------------------------------|
D|-----------------------------------------------------------------|
A|-5-55-55-5-55-55-5-55-55-5-55-55-3-33-33-3-33-33-3-33-33-3-33-33-|
D|-----------------------------------------------------------------|
   1 + 2 + 3 + 4 + 1 + 2 + 3 + 4 + 1 + 2 + 3 + 4 + 1 + 2 + 3 + 4 +

G|-----------------------------------------------------------------|
D|---------------------------------3-3-2-2-----------------2-2-----|
A|-1-11-11-1-11-11-1-11-11-1-11-11---------5-5-3-3-0-0-4-4-----4-4-|
D|-----------------------------------------------------------------|
   1 + 2 + 3 + 4 + 1 + 2 + 3 + 4 + 1 + 2 + 3 + 4 + 1 + 2 + 3 + 4 +


Pre Chorus 0:48
G|-------------------------------------------------------------------|
D|o-----------------------------------------------------------------o|
A|o-----------------------------------------------------5-7-8-8-8-8-o|
D|--0-0-5-6-0-3-5-0---0-3-0-6-0-5-3-0---5-6-0-3-5-0------------------|
    1 + 2 + 3 + 4 + 1 + 2 + 3 + 4 + 1 + 2 + 3 + 4 + 1 + 2 + 3 + 4 +

Chorus 0:59
G|-----------------------------------------------------------------|
D|-----------------------------------------------------------------|
A|-5---5---5-5-5-------------------1-1-----------3---3-3-3-4-0-3-4-|
D|---------------3---3-3---3-3-3-3-------3-------------------------|
   1 + 2 + 3 + 4 + 1 + 2 + 3 + 4 + 1 + 2 + 3 + 4 + 1 + 2 + 3 + 4 +

G|-----------------------------------------------------------------|
D|---------3-2-0-----------------------------------------3---2-----|
A|-5---5---------------------------3-3-3-3---3---1---1-----------3-|
D|---------------3---3-3-3-3-3-3-3---------------------------------|
   1 + 2 + 3 + 4 + 1 + 2 + 3 + 4 + 1 + 2 + 3 + 4 + 1 + 2 + 3 + 4 +

G|-----------------------------------------------------------------|
D|-----------------------------------------------------------------|
A|-5---5---5-5-5-------------------1-1-----------3---3-3-3-4-0-3-4-|
D|---------------3---3-3---3-3-3-3-------3-------------------------|
   1 + 2 + 3 + 4 + 1 + 2 + 3 + 4 + 1 + 2 + 3 + 4 + 1 + 2 + 3 + 4 +

G|-----------------------------------------------------------------|
D|---------3-2-0-----------------------------------------3---2-0---|
A|-5---5---------------------------3-3-3-3---3---1---1-----------3-|
D|---------------3---3-3-3-3-3-3-3---------------------------------|
   1 + 2 + 3 + 4 + 1 + 2 + 3 + 4 + 1 + 2 + 3 + 4 + 1 + 2 + 3 + 4 +

Interlude 1:21
G|-----------------------------------------------------------------|
D|-----------------------------------------------------------------|
A|-----------------------------------------------------------------|
D|-0-0-0-3---0-0-5---0-0-6---0-0-0-6-0-0-5-0-3-5-0-----------------|
   1 + 2 + 3 + 4 + 1 + 2 + 3 + 4 + 1 + 2 + 3 + 4 + 1 + 2 + 3 + 4 +

G|-----------------------------------------------------------------|
D|-----------------------------------------------------------------|
A|-5-----4-----4---3-----1---1-1-1-0-0-0---------------------------|
D|---------------------------------------5---3---0-----0-----------|
   1 + 2 + 3 + 4 + 1 + 2 + 3 + 4 + 1 + 2 + 3 + 4 + 1 + 2 + 3 + 4 +

G|-----------------------------------------------------------------|
D|-----------------------------------------------------------------|
A|-5-----4-----4---3-----1---1-1-1-0-0-0---------------------------|
D|---------------------------------------5---3---0-----------------|
   1 + 2 + 3 + 4 + 1 + 2 + 3 + 4 + 1 + 2 + 3 + 4 + 1 + 2 + 3 + 4 +

Verse 1:38
G|------------------------------------------------------------------|
D|o-----------------------------------------------------------------|
A|o-5-55-55-5-55-55-5-55-55-5-55-55-3-33-33-3-33-33-3-33-33-3-33-33-|
D|------------------------------------------------------------------|
    1 + 2 + 3 + 4 + 1 + 2 + 3 + 4 + 1 + 2 + 3 + 4 + 1 + 2 + 3 + 4 +

G|-----------------------------------------------------------------|
D|-----------------------------------------------------------------|
A|-1-11-11-1-11-11-1-11-11-1-11-11-----------------0-00-00-4-44-44-|
D|---------------------------------3-33-33-3-33-33-----------------|
   1 + 2 + 3 + 4 + 1 + 2 + 3 + 4 + 1 + 2 + 3 + 4 + 1 + 2 + 3 + 4 +

G|-----------------------------------------------------------------|
D|-----------------------------------------------------------------|
A|-5-55-55-5-55-55-5-55-55-5-55-55-3-33-33-3-33-33-3-33-33-3-33-33-|
D|-----------------------------------------------------------------|
   1 + 2 + 3 + 4 + 1 + 2 + 3 + 4 + 1 + 2 + 3 + 4 + 1 + 2 + 3 + 4 +

G|------------------------------------------------------------------|
D|---------------------------------3-3-2-2-----------------2-2-5-5-o|
A|-1-11-11-1-11-11-1-11-11-1-11-11---------5-5-3-3-0-0-4-4---------o|
D|------------------------------------------------------------------|
   1 + 2 + 3 + 4 + 1 + 2 + 3 + 4 + 1 + 2 + 3 + 4 + 1 + 2 + 3 + 4 +

Bridge 2:21
G|-------------------------------------------------------------------|
D|o-----------------------------------------------------------------o|
A|o-5-55-55-5-55-55-0-00-00-0-00-00-3-33-33-3-33-33-----------------o|
D|--------------------------------------------------5-55-55-5-55-55--|
    1 + 2 + 3 + 4 + 1 + 2 + 3 + 4 + 1 + 2 + 3 + 4 + 1 + 2 + 3 + 4 +
[ Tab from: http://www.guitartabs.cc/tabs/a/avenged_sevenfold/trashed_and_scattered_btab_ver_3.html ]
G|-----------------------------------------------------------------|
D|-----------------------------------------------------------------|
A|---------------------------------3-33-33-3-33-33-3-33-33-3-33-33-|
D|-3-33-33-3-33-33-3-33-33-3-33-33---------------------------------|
   1 + 2 + 3 + 4 + 1 + 2 + 3 + 4 + 1 + 2 + 3 + 4 + 1 + 2 + 3 + 4 +

G|-----------------------------------------------------------------|
D|-----------------------------------------------------------------|
A|-1-11-11-1-11-11-1-11-11-1-11-11-0-00-00-0-00-00-5555555555555555|
D|-----------------------------------------------------------------|
   1 + 2 + 3 + 4 + 1 + 2 + 3 + 4 + 1 + 2 + 3 + 4 + 1 + 2 + 3 + 4 +

G|-----------------------------------------------------------------|
D|-----------------------------------------------------------------|
A|-8-88-88-8-88-88-8-88-88-8-88-88-3-33-33-3-33-33-3-33-33-3-33-33-|
D|-----------------------------------------------------------------|
   1 + 2 + 3 + 4 + 1 + 2 + 3 + 4 + 1 + 2 + 3 + 4 + 1 + 2 + 3 + 4 +

G|-----------------------------------------------------------------|
D|-----------------------------------------------------------------|
A|-1-11-11-1-11-11-1-11-11-1-11-11-00000000000000004444444444444444|
D|-----------------------------------------------------------------|
   1 + 2 + 3 + 4 + 1 + 2 + 3 + 4 + 1 + 2 + 3 + 4 + 1 + 2 + 3 + 4 +

Breakdown 2:54
G|-----------------------------------------------------------------|
D|-----------------------------------------------------------------|
A|-----------------------------------------------------------------|
D|-00000-----------00000-----------00000-----------00000-/-12-\----|
   1 + 2 + 3 + 4 + 1 + 2 + 3 + 4 + 1 + 2 + 3 + 4 + 1 + 2 + 3 + 4 +

G|-------------------------------------------------------------------|
D|o-----------------------------------------------------------------o|
A|o-----------------------------------------------------5-7-8-8-8-8-o|x4
D|--0-0-5-6-0-3-5-0---0-3-0-6-0-5-3-0---5-6-0-3-5-0------------------|
    1 + 2 + 3 + 4 + 1 + 2 + 3 + 4 + 1 + 2 + 3 + 4 + 1 + 2 + 3 + 4 +

G|-----------------------------------------------------------------|
D|-----------------------------------------------------------------|
A|-5-----4-----4---3-----1---1-1-1-0-0-0---------------------------|
D|---------------------------------------5---3---0-----0-----------|
   1 + 2 + 3 + 4 + 1 + 2 + 3 + 4 + 1 + 2 + 3 + 4 + 1 + 2 + 3 + 4 +

G|-----------------------------------------------------------------|
D|-----------------------------------------------------------------|
A|-5-----4-----4---3-----1---1-1-1-0-0-0---------------------------|
D|---------------------------------------5---3---0-----------------|
   1 + 2 + 3 + 4 + 1 + 2 + 3 + 4 + 1 + 2 + 3 + 4 + 1 + 2 + 3 + 4 +

Chorus 3:33
G|------------------------------------------------------------------|
D|o-----------------------------------------------------------------|
A|o-5---5---5-5-5-------------------1-1-----------3---3-3-3-4-0-3-4-|
D|----------------3---3-3-3-3-3-3-3-------3-------------------------|
    1 + 2 + 3 + 4 + 1 + 2 + 3 + 4 + 1 + 2 + 3 + 4 + 1 + 2 + 3 + 4 +

G|------------------------------------------------------------------|
D|---------3-2-0-----------------------------------------3---2-0---o|
A|-5---5---------------------------3-3-3-3---3---1---1-----------3-o|
D|---------------3---3-3-3-3-3-3-3----------------------------------|
   1 + 2 + 3 + 4 + 1 + 2 + 3 + 4 + 1 + 2 + 3 + 4 + 1 + 2 + 3 + 4 +

Interlude 3:55
G|-------------------------------------------------------------------|
D|o-------------------------------------------------------6---------o|
A|o-55555555555555550000000000000000111111111---------5-8-----------o|x4
D|--------------------------------------------5-3-0------------------|
    1 + 2 + 3 + 4 + 1 + 2 + 3 + 4 + 1 + 2 + 3 + 4 + 1 + 2 + 3 + 4 +

Outro 4:16
G|-----------------------------------------------------------------|
D|-----------------------------------------------------------------|
A|-----------------------------------------------------------------|
D|-00000-----------00000-----------00000-----------00000-/-12-\----|
   1 + 2 + 3 + 4 + 1 + 2 + 3 + 4 + 1 + 2 + 3 + 4 + 1 + 2 + 3 + 4 +

4:22
G|-----------------------------------------------------------------|
D|-----------------------------------------------------------------|
A|-----------------------------------------------------------------|
D|-00000---------------00000---00000---00000-----------00000---0000|
   1 + 2 + 3 + 4 + 1 + 2 + 3 + 4 + 1 + 2 + 3 + 4 + 1 + 2 + 3 + 4 +

G|-----------------------------------------------------------------|
D|-----------------------------------------------------------------|
A|-----------------------------------------------------------------|
D|-0---00000-----------00000---00000---00000-----------00000---0000|
   1 + 2 + 3 + 4 + 1 + 2 + 3 + 4 + 1 + 2 + 3 + 4 + 1 + 2 + 3 + 4 +

4:33
G|-----------------------------------------------------------------|
D|-----------------------------------------------------------------|
A|-----------------55555---55555---333333333-------33333---33333---|
D|-0---00000-------------------------------------------------------|
   1 + 2 + 3 + 4 + 1 + 2 + 3 + 4 + 1 + 2 + 3 + 4 + 1 + 2 + 3 + 4 +

G|-----------------------------------------------------------------|
D|-----------------------------------------------------------------|
A|-111111111-------11111---11111-------------------00000---44444---|
D|---------------------------------333333333-----------------------|
   1 + 2 + 3 + 4 + 1 + 2 + 3 + 4 + 1 + 2 + 3 + 4 + 1 + 2 + 3 + 4 +

G|------------------------------------------------------------------|
D|o-----------------------------------------------------------------|
A|o-555555555-------55555---55555---333333333-------33333---33333---|
D|------------------------------------------------------------------|
    1 + 2 + 3 + 4 + 1 + 2 + 3 + 4 + 1 + 2 + 3 + 4 + 1 + 2 + 3 + 4 +

G|------------------------------------------------------------------|
D|-----------------------------------------------------------------o|
A|-111111111-------11111---11111-------------------00000---44444---o|x3
D|---------------------------------333333333------------------------|
   1 + 2 + 3 + 4 + 1 + 2 + 3 + 4 + 1 + 2 + 3 + 4 + 1 + 2 + 3 + 4 +

5:17
G|-----------------------------------------------------------------|
D|-----------------5-------8---7-------------------7---7-5---5-3---|
A|-8---8---8-8---8-----8-----------3---3-3-3-3---3-----------------|
D|-----------------------------------------------------------------|
   1 + 2 + 3 + 4 + 1 + 2 + 3 + 4 + 1 + 2 + 3 + 4 + 1 + 2 + 3 + 4 +

G|-----------------------------------------------------------------|
D|-----------------3-2-0---------2---------------------------------|
A|-1---1---1-1---1-------3-0-1-3---0---0-0-0-0-0-0-0/4-4-4-4/7-7-7-|
D|-----------------------------------------------------------------|
   1 + 2 + 3 + 4 + 1 + 2 + 3 + 4 + 1 + 2 + 3 + 4 + 1 + 2 + 3 + 4 +

G|-----------------------------------------------------------------|
D|-----------------5---5-8-----7-5-----------------7---7-5---5-3---|
A|-8---8---8-8---8-----------------3---3-3-3-3---3-----------------|
D|-----------------------------------------------------------------|
   1 + 2 + 3 + 4 + 1 + 2 + 3 + 4 + 1 + 2 + 3 + 4 + 1 + 2 + 3 + 4 +

G|-----------------------------------------------------------------|
D|-----------------3-2-0---------2---------------------------------|
A|-1---1---1-1---1-------3-0-1-3---0-------------------------------|
D|-----------------------------------------------------------------|
   1 + 2 + 3 + 4 + 1 + 2 + 3 + 4 + 1 + 2 + 3 + 4 + 1 + 2 + 3 + 4 +

G|-----------------------------------------------------------------|
D|-----------------------------------------------------------------|
A|-----------------------------------------------------------------|
D|-----------------3----------------------------------------------|
   1 + 2 + 3 + 4 + 1 + 2 + 3 + 4 + 1 + 2 + 3 + 4 + 1 + 2 + 3 + 4 +

ReTabbed by Dave Vucko
Comments