Avenged Sevenfold - To End The Rapture Chords & Tabs

 

To End The Rapture Chords & Tabs

Avenged Sevenfold Chords & Tabs

Version: 2 Type: Tab 0 ratings
1 star 2 stars 3 stars 4 stars 5 stars
comments

To End The Rapture Tab

   
TO END THE RAPTURE
As recorded by Avenged Sevenfold
(From the 2002 Album SOUNDING THE SEVENTH TRUMPET)

Transcribed by Mooney
	

Words by Matt Shadows Music by A7x
Arranged by A7x

Gtr I (D A D G B E) - 'Lead Guitar'
Gtr II (D A D G B E) - 'Rythm Guitar'

 Intro/Solo
  Q=122
  D5          E5   F5                     C5              Bb5     C5
 4/4
  Gtr I
   ~~               ~~                     ~~               ~~~~
|----------------|----------------------|---------------|-------------------|
|----------------|----------------------|---------------|-------------------|
|----------------|-------------12-12s14-|-12------------|-------------------|
|-12----12-12-14-|-15----10s15----------|-------15--14--|-[15]----14--------|
|----------------|----------------------|---------------|-------------/15---|
|----------------|----------------------|---------------|-------------------|
|
| Gtr II
|----------------|----------------------|---------------|-------------------|
|----------------|----------------------|---------------|-------------------|
|----------------|----------------------|---------------|-------------------|
|--0-----0--0--2-|--3-----3-----3--3----|-10------------|---8-----10--------|
|--0-----0--0--2-|--3-----3-----3--3----|-10------------|---8-----10--------|
|--0-----0--0--2-|--3-----3-----3--3----|-10------------|---8-----10--------|


  D5            E5  F5                 C5
   ~~                ~~            ~~~~~~~~~
|-----------------|------------------|----------------------|
|-----------------|------------------|----------------------|
|-----------------|---------------17-|-(17)---17S19---------|
|-12----12---14---|-15----14---15----|----------------------|
|-----------------|------------------|----------------------|
|-----------------|------------------|----------------15-17-|
|
|-----------------|------------------|----------------------|
|-----------------|------------------|----------------------|
|-----------------|------------------|----------------------|
|--0-----0-0----2-|--3-----3-3-----3-|--10------------------|
|--0-----0-0----2-|--3-----3-3-----3-|--10------------------|
|--0-----0-0----2-|--3-----3-3-----3-|--10------------------|


  Bb5                           C5
|---------------------------------------------------------------|
|---------------------------------------------------------------|
|----------------------------------------------14-15-14-15-17---|
|-------------------------------14-15-17-14-15------------------|
|-------------12-13-15-17-15-17---------------------------------|
|-15-17-15-17---------------------------------------------------|
|
|---------------------------------------------------------------|
|---------------------------------------------------------------|
|---------------------------------------------------------------|
|--8----------------------------10------------------------------|
|--8----------------------------10------------------------------|
|--8----------------------------10------------------------------|


  D5          E5   F5
|----------------|-------------------------------|
|----------------|---------20----20------20s==22-|
|-19-------19-21-|-22s==17----17------17---------|
|----------------|-------------------------------|
|-------17-------|-------------------------------|
|----------------|-------------------------------|
|
|----------------|-------------------------------|
|----------------|-------------------------------|
|----------------|-------------------------------|
|--0-----0--0--2-|--3-------3-------3-------3----|
|--0-----0--0--2-|--3-------3-------3-------3----|
|--0-----0--0--2-|--3-------3-------3-------3----|


  C5
   ~~
|------20-18-18-17-17-13-15-15-13-------12-12-|
|-20------------------------------13-13-------|
|---------------------------------------------|
|---------------------------------------------|
|---------------------------------------------|
|---------------------------------------------|
|
|---------------------------------------------|
|---------------------------------------------|
|---------------------------------------------|
|-10------------------------------------------|
|-10------------------------------------------|
|-10------------------------------------------|


  Bb5                                 C5
|-17-15-13-------------------------------------------------------------|
|----------17-15-13----------------------------------------------------|
|-------------------15-14-12-------------------------12-12-14-14-15-17-|
|----------------------------14-15-14-14-14-15-17-19-------------------|
|----------------------------------------------------------------------|
|----------------------------------------------------------------------|
|
|----------------------------------------------------------------------|
|----------------------------------------------------------------------|
|----------------------------------------------------------------------|
|--8----------------------------------10-------------------------------|
|--8----------------------------------10-------------------------------|
|--8----------------------------------10-------------------------------|

[ Tab from: http://www.guitartabs.cc/tabs/a/avenged_sevenfold/to_end_the_rapture_tab_ver_2.html ]
  D5                                 E5
   ~~
|-17------------------------------------------|
|---------------------------------------------|
|-------21-19-17-21-19---17-19-16-17-19-16-17-|
|---------------------------------------------|
|---------------------------------------------|
|---------------------------------------------|
|
|---------------------------------------------|
|---------------------------------------------|
|---------------------------------------------|
|--0-----0-------------0--------------2-------|
|--0-----0-------------0--------------2-------|
|--0-----0-------------0--------------2-------|


  F5
|---------------------------------------------------------------------------|
|---------------------------------------------------------------------------|
|-17-22-14-16-17-14-16-17-19-12-14-16-19-17-16-14-12---16-17-21-14-15-17-18-|
|---------------------------------------------------------------------------|
|---------------------------------------------------------------------------|
|---------------------------------------------------------------------------|
|
|---------------------------------------------------------------------------|
|---------------------------------------------------------------------------|
|---------------------------------------------------------------------------|
|--3-----------------------------------3-------------3--------------3-------|
|--3-----------------------------------3-------------3--------------3-------|
|--3-----------------------------------3-------------3--------------3-------|


  C5
|-------------------------------------------------------15-17-10-13-12-15-|
|-------18-11-15-13-17-18-15-11-20-17-18-13-15-11-18-20-------------------|
|-16-17-------------------------------------------------------------------|
|-------------------------------------------------------------------------|
|-------------------------------------------------------------------------|
|-------------------------------------------------------------------------|
|
|-------------------------------------------------------------------------|
|-------------------------------------------------------------------------|
|-------------------------------------------------------------------------|
|-10----------------------------------------------------------------------|
|-10----------------------------------------------------------------------|
|-10----------------------------------------------------------------------|


  Bb5                                 C5
|-13-17-13-15-18-13-20-18-15-20-17-15-18-15-20-15-20-18-16-17-15-10-15-20-|
|-------------------------------------------------------------------------|
|-------------------------------------------------------------------------|
|-------------------------------------------------------------------------|
|-------------------------------------------------------------------------|
|-------------------------------------------------------------------------|
|
|-------------------------------------------------------------------------|
|-------------------------------------------------------------------------|
|-------------------------------------------------------------------------|
|--8----------------------------------10----------------------------------|
|--8----------------------------------10----------------------------------|
|--8----------------------------------10----------------------------------|


  D5        E5
   ~~
|-22-----------|
|--------------|
|--------------|
|--------------|
|--------------|
|--------------|
|
|--------------|
|--------------|
|--------------|
|--0----0-0-2--|
|--0----0-0-2--|
|--0----0-0-2--|


 Verse/Outro
  F5           C5          Bb5  C5
  Gtrs I, II
|------------|-----------|------------|
|------------|-----------|------------|
|------------|-----------|------------|
|-3----3-3-3-|-10--------|-8----10----|
|-3----3-3-3-|-10--------|-8----10----|
|-3----3-3-3-|-10--------|-8----10----|


    D5       E5  F5           C5          Bb5  C5
                                                      3x
||-------------|------------|-----------|-------------||-------------|---------|
||o------------|------------|-----------|------------o||-------------|---------|
||-------------|------------|-----------|-------------||-------------|---------|
||--0----0-0-2-|-3----3-3-3-|-10--------|-8----10-----||-(10)--------|-(10)----|
||o-0----0-0-2-|-3----3-3-3-|-10--------|-8----10----o||-(10)--------|-(10)----|
||--0----0-0-2-|-3----3-3-3-|-10--------|-8----10-----||-(10)--------|-(10)----|



Tablature Legend
----------------
 h   - hammer-on
 p   - pull-off
 b   - bend
 pb  - pre-bend
 r   - bend release (if no number after the r, then release immediately)
 /\  - slide into or out of (from/to "nowhere")
 s   - legato slide
 S   - shift slide
 - natural harmonic
[n]  - artificial harmonic
n(n) - tapped harmonic
 ~   - vibrato
 tr  - trill
 T   - tap
 TP  - trem. picking
 PM  - palm muting
\n/  - tremolo bar dip; n = amount to dip
 \n  - tremolo bar down
 n/  - tremolo bar up
/n\  - tremolo bar inverted dip
 =   - hold bend; also acts as connecting device for hammers/pulls
 <> - volume swell (louder/softer)
 x   - on rhythm slash represents muted slash
 o   - on rhythm slash represents single note slash

Misc Legend
-----------
 |  - bar
||  - double bar
||o - repeat start
o|| - repeat end
*|  - double bar (ending)
 :  - bar (freetime)
 $  - Segno
 &  - Coda
Tempo markers -  = BPM(8/16=s8/s16), where s8 = swing 8ths, s16 = swing 16ths
Comments