Avenged Sevenfold - To End The Rapture Chords & Tabs

 

To End The Rapture Chords & Tabs

Avenged Sevenfold Chords & Tabs

Version: 1 Type: Tab 0 ratings
1 star 2 stars 3 stars 4 stars 5 stars
comments

To End The Rapture Tab

Rhythm guitar.  Play 8x
E-------------------------------------|
B-------------------------------------|
G-------------------------------------|
D--0----0-0-2-3---3---3-10---8---10---|
A--0----0-0-2-3---3---3-10---8---10---|
D--0----0-0-2-3---3---3-10---8---10---|
        : : :

Lead Guitar.
E-----------------------------------------------------------|
B-----------------------------------------------------------|
G-------------------------12-14-12-------------*------------|
D-12---12-12-14-15\---/15------------15---14--15----14------|
A------------------------------------------------------15---|
D-----------------------------------------------------------|

E----------------------------------------------------------------------------|
B----------------------------------------------------------------------------|
G------------------------17---19---------------------------------------------|
D12---12-14-15\---14-15------------------------------------------------------|
A-----------------------------------------------------------13h15h17-15h17---|
D----------------------------------15h17-15h17h18-15h17h18-------------------|

E----------------------------------------------------------------------------|
B-----------------------------------------------------------/20----/22b-20\--|
G----------------14h15-14h15h17-19\---/19-19-21-22\-/22p17-----17------------|
D-13h15h17-13h15-------------------------------------------------------------|
A----------------------------------------------------------------------------|
D----------------------------------------------------------------------------|
[ Tab from: http://www.guitartabs.cc/tabs/a/avenged_sevenfold/to_end_the_rapture_tab.html ]
E-18/20/18-1818-1717-1515-1717-1515-1313-15/18-17p15p13----------------------|
B-------------------------------------------------------17p15p13-------------|
G----------------------------------------------------------------12h14/15h17-|
D----------------------------------------------------------------------------|
A----------------------------------------------------------------------------|
D----------------------------------------------------------------------------|

E------------|
B------------|
G------------|
D14/15h17h19-
A------------|
D------------|

Tapping begins:

E-17b-------------------------------------------------------------|
B-----------------------------------------------------------------|
G-----t21p19p17t21p19h17-t19p16h17t19p16h17-t17p14h16t17p14h16h17-|
D-----------------------------------------------------------------|
A-----------------------------------------------------------------|
D-----------------------------------------------------------------|

E--------------------------------------------------------------|
B--------------------------------------------------------------|
G-t17t19p12h14h16t19t17p16p14p12h16t17-t21p14h15h17t19p15h17---|
D--------------------------------------------------------------|
A--------------------------------------------------------------|
D--------------------------------------------------------------|

E-------------------------------------------------t15t17p10h13p12t15p13---|
Bt18p11h15p13t17t18p15p11-t20p17t18p13h15p11t18t20------------------------|
G-------------------------------------------------------------------------|
D-------------------------------------------------------------------------|
A-------------------------------------------------------------------------|
D-------------------------------------------------------------------------|

E-t18p13h15p13t20t18p15-t20p17p15t18p15t20p15-t20p18p15h17p15t10p15h18/22~-\-|
B----------------------------------------------------------------------------|
G----------------------------------------------------------------------------|
D----------------------------------------------------------------------------|
A----------------------------------------------------------------------------|
D----------------------------------------------------------------------------|

End song with:

E------|
B------|
G------|
D--0~--|
A--0~--|
D--0~--|
Comments