Avenged Sevenfold - Strength Of The World Chords & Tabs

 

Strength Of The World Chords & Tabs

Avenged Sevenfold Chords & Tabs

Version: 4 Type: Tab

Strength Of The World Tab

this is the first tab i have ever done so cut me some slack if its wrong wich im pretty sure some parts are.
well here it is...........
[ Tab from: http://www.guitartabs.cc/tabs/a/avenged_sevenfold/strength_of_the_world_tab_ver_4.html ]
acustic |intro|                    
|---1-----1---------1-----1-----3-3/5--3-----------3---3-----------3-------|
|-----3-----3---------3-----3------------3-------3---3---3-------3---3-----|
|-------2-----2---------2------------------0---0-----------0---0-----------|
|---------------0----------------------------0---------------0-------------|
|--------------------------------------------------------------------------|
|-0---------------0--------------------------------------------------------|
|                                                                          
|                                                                          
|--------------------------------------------------------------------------|
|------------------------------------8-------------------------------------|
|------------------------------------7-------------------------------------|
|------------------------------------5-------------------------------------|
|------------------------------------5-------------------------------------|
|------------------------------------5-------------------------------------|
                                    let ring
                                   
|---1-----1---------1-----1-----3-3/5--3-----------3---3-----------3-------|
|-----3-----3---------3-----3------------3-------3---3---3-------3---3-----|
|-------2-----2---------2------------------0---0-----------0---0-----------|
|---------------0----------------------------0---------------0-------------|
|--------------------------------------------------------------------------|
|-0---------------0--------------------------------------------------------|
|                                                                          
|                                                                          
|--------------------------------------------------------------------------|
|------------------------------------8-------------------------------------|
|------------------------------------7-------------------------------------|
|------------------------------------5-------------------------------------|
|------------------------------------5-------------------------------------|
|------------------------------------5-------------------------------------|
all the violins and crap come in here/let ring
                                   
|---1-----1---------1-----1-----3-3/5--3-----------3---3-----------3-------|
|-----3-----3---------3-----3------------3-------3---3---3-------3---3-----|
|-------2-----2---------2------------------0---0-----------0---0-----------|
|---------------0----------------------------0---------------0-------------|
|--------------------------------------------------------------------------|
|-0---------------0--------------------------------------------------------|
|                                                                          
|                                                                          
|--------------------------------------------------------------------------|
|------------------------------------8-------------------------------------|
|------------------------------------7-------------------------------------|
|------------------------------------5-------------------------------------|
|------------------------------------5-------------------------------------|
|------------------------------------5-------------------------------------|
                                      let ring
                                   
|---1-----1---------1-----1-----3-3/5--3-----------3---3-----------3-------|
|-----3-----3---------3-----3------------3-------3---3---3-------3---3-----|
|-------2-----2---------2------------------0---0-----------0---0-----------|
|---------------0----------------------------0---------------0-------------|
|--------------------------------------------------------------------------|
|-0---------------0------------------------------------------------3^^^^^^^|
|                                                                barey bend
|                                                                         
|--------------------------------------------------------------------------|
|------------------------------------8-------------------------------------|
|------------------------------------7-------------------------------------|
|------------------------------------5-------------------------------------|
|------------------------------------5-------------------------------------|
|------------------------------------5-------------------------------------|
                                     let ring
                                   
|---1-----1---------1-----1-----3-3/5--3-----------3---3-----------3-------|
|-----3-----3---------3-----3------------3-------3---3---3-------3---3-----|
|-------2-----2---------2------------------0---0-----------0---0-----------|
|---------------0----------------------------0---------------0-------------|
|--------------------------------------------------------------------------|
|-0---------------0--------------------------------------------------------|
|p(release bend)                                                           
|                                                                          
|--------------------------------------------------------------------------|
|------------------------------------8-------------------------------------|
|------------------------------------7-------------------------------------|
|------------------------------------5-------------------------------------|
|------------------------------------5-------------------------------------|
|------------------------------------5-------------------------------------|
                                     let ring
                4x   (will add this part when i know)
|------------------|-------------------------------------------------------|
|.----3---5-3---3-.|-------------------------------------------------------|
|------------------|-------------------------------------------------------|
|-5-5---5-----5----|-------------------------------------------------------|
|.----------------.|-------------------------------------------------------|
|------------------|-------------------------------------------------------|
|
|
|--------------------------------------------------------------------------|
|--------------------------------------------------------------------------|
|--------------------------------------------------------------------------|
|--------------------------------------------------------------------------|
|--------------------------------------------------------------------------|
|--------------------------------------------------------------------------|

guitar with heavey distortion  2x
|-------------------------------|                                           
|.-----------------------------.|
|-------------------------------|
|-------------------------------|
|.----12-8-8-10-7-7-8-7-5p0----.|
|-0-0---------------------------|
|
|                              
|-------------------------------|
|.----------------------------8.|
|-----------------------------7-|
|-----------------------------5-|
|.----------------------------5.|
|-----------------------------5-|
|                             let ring
|pm- -
|-------------------------------|
|.-----------------------------.|
|-------------------------------|
|-0-0---------------------------|
|.0-0--------------------------.|
|-0-0---------------------------|

                               2x
|-------------------------------|
|.-----------------------------.|
|-------------------------------|
|-------------------------------|
|.----12-8-8-10-7-7-8-7-5p0----.|
|-0-0---------------------------|
|
|                              
|-------------------------------|
|.----------------------------8.|
|-----------------------------7-|
|-----------------------------5-|
|.----------------------------5.|
|-----------------------------5-|
|                             let ring/ dont let ring second time
|pm- - - - - - - - - - - - - - -    
|-------------------------------|
|.-----------------------------.|
|-------------------------------|
|-0-0-0-0-0-0-0-0-0-0-0-0-0-0-0-|
|.0-0-0-0-0-0-0-0-0-0-0-0-0-0-0.|
|-0-0-0-0-0-0-0-0-0-0-0-0-0-0-0-|

do this for a while (not sure of the rythem part yet- i'll add on when i know)
|---------------------------------------------------|
|---------------------------------------------------|
|---------------------------------------------------|
|---------------------------------------------------|
|-----12-8-8-10-7-7-8-7-5p0-------5-----7-----8-7-5-|
|-0-0-----------------------5-7-8---8-7---8-7-------|

logan mcphee
A7X KICKS ASS