Avenged Sevenfold - Strength Of The World Chords & Tabs

 

Strength Of The World Chords & Tabs

Avenged Sevenfold Chords & Tabs

Version: 1 Type: Bass Tab 0 ratings
1 star 2 stars 3 stars 4 stars 5 stars
comments

Strength Of The World Bass Tab

   
Band- Avenged Sevenfold
Song- Strength Of The World

intro
G|---------
D|---------
A|---------
D|-0~---5~- x2

G|------------------------
D|------------------------
A|------------------------
D|-0000000000-55555555555- x2

verse
G|--------------------------------------------------
D|--------------------------------------------------
A|-55555555555555-----------------------------------
D|----------------55555555555555-0-00000000-0100101- x4

prechorus
G|-------------------------------
D|-------------------------------
A|-------------------------------
D|-00000-00000-321-321-111111111- x2

prechorus 2
G|-----------
D|-----------
A|-875---578-
D|----8------ x2

G|---------------
D|---------------
A|-108-7----7810-
D|-------10------ x2

G|--------
D|-0~--4~-
A|--------
D|--------

chorus
G|-----------------------  \\
D|-----------------------   \\
A|---------5555----------    \\
D|-0-0-0-0------55555555-     \\
                                x2
G|------------------------    /
D|------------------------   /
A|-3-3-3-3-3333------0000-  /
D|--------------3333------ /

bridge
G|---------------|------------
D|---------------|------------
A|-55-33-1111111-|-------3-1~-
D|---------------|-55-33------

intro 2
G|--------------
D|--------------
A|--------1~-3~-
D|-0~-5~--------

play verse x2
play prechorus x2

verse 2
G|----------------------|---------------------
D|----7----5------------|---------------------
A|-----8-0--7-07875-----|-----5-----8---7-----
D|-00---------------8-5-|-578---5-8---78--875- x2

play prechorus 2
play chorus x2
play bridge

intro 3
G|----------------------------------
D|--------------1~-3~-5555555555555-
A|--------1~-3~---------------------
D|-0~-5~----------------------------
[ Tab from: http://www.guitartabs.cc/tabs/a/avenged_sevenfold/strength_of_the_world_btab.html ]
G|---------------------------------------
D|--------------------1111-3333-55555555-
A|---------------------------------------
D|-1111-3333-55555555--------------------

G|------4/54--------------
D|-----------542~--5-4-2~-
A|------------------------
D|-2~---------------------

acustic part
G|------------------------------
D|--------------23~-------------
A|-7/5~-5/3~-35----1~-1/3-1-00~-
D|------------------------------

G|----------------------------
D|------------23~-------------
A|-5~-5/3~-35----1~-1/3-1-00~-
D|----------------------------

G|-------------------------------------
D|----------55555555-------------------
A|-55555555----------55555555----------
D|----------------------------55555555-

G|-------------------|-----------
D|-------------------|-----------
A|-1111-3333-5555555-|-1111-3333-
D|-------------------|-----------

- play bridge

G|------------------------------------------------------------------
D|------------------------------------------11113333-55555555555555-
A|---------------------------------11113333-------------------------
D|-000-000-000-000-555-555-555-555---------------------------------- x2

G|---------------------------------------
D|--------------------1111-3333-55555555-
A|---------------------------------------
D|-1111-3333-55555555--------------------

play chorus x2

outro
G|-------------------------------------------
D|-------------------------------------------
A|-5555-3333-1111111111-----------333-111111-
D|----------------------5555-3333------------

G|--------------------------------
D|--------------------------------
A|-5555-3333-1111111111-----------
D|----------------------5555-3333-

G|------------------
D|------------------
A|-33333333-1111111-
D|------------------ x3

G|--------------------
D|--------------------
A|--------------------
D|-1111-3333-55555555- x4

G|------------------|------------------
D|------------------|-1~-5/7-33-5-7-5~-
A|------------------|------------------
D|-1~1~3~3~5~5~5~5~-|-------------------
Comments