Avenged Sevenfold - Sidewinder Chords & Tabs

 

Sidewinder Chords & Tabs

Avenged Sevenfold Chords & Tabs

Version: 2 Type: Tab 0 ratings
1 star 2 stars 3 stars 4 stars 5 stars
comments

Sidewinder Tab

Avenged Sevenfold
Sidewinder
City of Evil

Tabbed by: Taz T

Tuning: Drop D

This is the intro and main riff in the song. 

Guitar One:
[ Tab from: http://www.guitartabs.cc/tabs/a/avenged_sevenfold/sidewinder_tab_ver_2.html ]
e|---------------------------------------------------------------------| 4x
B|---------------------------------------------------------------------|
G|-------.-.-.------.-.-.-.-.----.-.-.-.-.---.-.-.-.-------------------|
D|--0----0-0-0--0---0-0-0-0-0----0-0-0-0-0---0-0-0-0-------------------|
A|--0----0-0-0--0---0-0-0-0-0----0-0-0-0-0---0-0-0-0-------------------|
D|--0----0-0-0--0---0-0-0-0-0----0-0-0-0-0---0-0-0-0-------------------|
          

After guitar one plays the riff twice this starts up.

Guitar Two:
e|----------------------------------------------------------------------|2x
B|----------------------------------------------------------------------|
G|--11--14--7-7-7-7-7-7---15-15-15-15-15-15-15-15/18--------------------|
D|----------------------------------------------------------------------|
A|--9---12--5-5-5-5-5-5---13-13-13-13-13-13-13-13/16--------------------|
D|----------------------------------------------------------------------|
Comments