Avenged Sevenfold - Second Heartbeat Chords & Tabs

 

Second Heartbeat Chords & Tabs

Avenged Sevenfold Chords & Tabs

Version: 5 Type: Tab 0 ratings
1 star 2 stars 3 stars 4 stars 5 stars
comments

Second Heartbeat Tab

   
GUITAR 1 Zacky Vengeance (ROCK ON ZACKY!!!)
GUITAR 2 Synyster Gates

guitar 1
e -----------------------------------------------------------------|
b -----------------------------------------------------------------|
g -----------------------------------------------------------------|
d -----------------------------------------------------------------|
a -3333333333333333333333333333333333333333333333333333333333333333
d -----------------------------------------------------------------
   xxxxxxxxxxxxxxxxxxxxxxxxxxxxxxxxxxxxxxxxxxxxxxxxxxxxxxxxxxxxxxxx

guitar 2
e ------------------------------------------------------------------|
b ------------------------------------------------------------------|
g ------------------------------------------------------------------|
d ---------------------------------55555555555555555555555555555555-|
a ---------------------------------33333333333333333333333333333333-|
d ------------------------------------------------------------------|


>>intro part 2<<

guitar 1
e -------------------------------------------------------------------|
b --------------------------------------------------------6/8-6------|
g -3/5--0--5--5/7--0--7-8--0--8-7-5-----5--7/8-7-5------5-------8-7--|
d ----------------------------------8-6------------8--6--------------|
a -------------------------------------------------------------------|
d -------------------------------------------------------------------| x2

guitar 2
e -----------------------------------------------------------------|
b -----------------------------------------------------------------|
g -5----------------------------5-3--------------------------------|
d -5----------------------------5-3-6--------------3----------5----|
a -3----------------------------3-1-6--------------3----------5----|
d ----------------------------------6--------------3----------5----|
                                x x


e ---------------------------------------------------------6----------|
b -4-----4--4/6------6-8-----8-6--------------8-6--------------9-8-6--|
g ----5----------7--------8-------8-7---5-8--------8-7--5-8-----------|
d --------------------------------------------------------------------|
a --------------------------------------------------------------------|
d --------------------------------------------------------------------|

>>main riff 1<<

guitar 1
e -------------------------------------------------------------------|
b --------------------------------------------------------6/8-6------|
g -3/5--0--5--5/7--0--7-8--0--8-7-5-----5--7/8-7-5------5-------8-7--|
d ----------------------------------8-6------------8--6--------------|
a -------------------------------------------------------------------|
d -------------------------------------------------------------------| x2


guitar 2
e ---------------------------------------------------------6----------|
b -4-----4--4/6------6-8-----8-6--------------8-6--------------9-8-6--|
g ----5----------7--------8-------8-7---5-8--------8-7--5-8-----------|
d --------------------------------------------------------------------|
a --------------------------------------------------------------------|
d --------------------------------------------------------------------| x2

guitar 3
e --------------------------------------------------------------------|
b --------------------------------------------------------------------|
g --------------------------------------------------------------------|
d -555555555555555555555555555555555----------------------------------|
a -333333333333333333333333333333333666666666666666633333333355555555-
d ----------------------------------666666666666666633333333355555555- x2
   xxxxxxxxxxxxxxxxxxxxxxxxxxxxxxxxxxxxxxxxxxxxxxxxxxxxxxxxxxxxxxxxxx


>>interlude<< (drum roll)

guitar 1
e ---------|
b ---------|
g -7/8~~~5-
d ---------|
a ---------|
d ---------|

guitar 2
e ---------
b -6/8~~~4-
g ---------|
d ---------|
a ---------|
d ---------|

guitar 3
e ----------|
b ----------|
g -5--------|
d -5----\\--|
a -3----\\--|
d ------\\--| pick scrape


>>verse 1<<

guitar 1
e ------------------------------------------|
b ------------------------------------------|
g --12-12-----7------8------3------5---4----|
d ---x--x-----x------x------x------x---x----|
a --10-10-----5------6------1------3---2----|
d ------------------------------------------| x2


guitar 2
e ------------------------------------------|
b ------------------------------------------|
g --5-5------7-------8------12-----13--12---|
d --x-x------x-------x-------x------x---x---|
a --3-3------5-------6------10-----11--10---|
d ------------------------------------------| x2

guitar 1
e ---------------------------------------------------|
b ---------------------------------------------------|
g -----------------------------------------13-----12-|
d ------5------------88888----1212121212----x------x-|
a --3333----55558----66666----1010101010---11-----10-|
d ---------------------------------------------------|
    xxxx    xxxx     xxxx     xxxxxxxx

guitar 2
e ---------------------------------------------------|
b ---------------------------------------------------|
g -----------------------------------------5-------4-|
d --55555---77777----88888----33333--------x-------x-|
a --33333---55555----66666----11111--------3-------2-|
d ---------------------------------------------------|
    xxxx    xxxx     xxxx     xxxx


>>interlude<<

guitar 1
e --------------------|
b --------------------|
g --12-12--12-12-12---|
d ---x--x---x--x--x---|
a --10-10--10-10-10---|
d --------------------|

guitar 2
e -------------------------------|
b -------------------------------|
g -------------------------------|
d --1-1-----1-1-1----1111--------|
a --1-1-----1-1-1----1111--6~~~~-|
d --1-1-----1-1-1----1111--------|
                     xxxx  *

>>chorus 1<<

guitar 1
e ---------------------------------------------------------------------|
b ---------------------------------------------------------------------|
g -5--7--8--13-------8--10-12--15-----17--15--12--12/13---8--10-12--15-|
d -x--x--x---x-------x--x---x---x------x---x---x---x--x---x--x---x---x-|
a -3--5--6--11-------6--8--10--13-----15--13--10--10/11---6--8--10--13-|
d ---------------------------------------------------------------------|

guitar 2
e ---------------------------------------------------------------------|
b ---------------------------------------------------------------------|
g -5--7--8--13-------8--10-12--15-----5--7--8--13---------8--10-12--15-|
d -x--x--x---x-------x--x---x---x-----x--x--x---x---------x--x---x---x-|
a -3--5--6--11-------6--8--10--13-----3--5--6--11---------6--8--10--13-|
d ---------------------------------------------------------------------|


>>main riff 2<<

guitar 1
e ------------------------------------------------------------------|
b ------------------------------------------------------------------|
g -/-20-19-15-15/17----15-15-15-15-15-12-10--10-12-12-12-12-12-10-8-|
d -/--x--x--x--x--x-----x--x--x--x--x--x-x----x--x--x--x--x--x-x--x-|
a -/-18-17-13-13/15----13-13-13-13-13-10-8----8-10-10-10-10-10-8--6-|
d ------------------------------------------------------------------|


e --------------------------------------------------------|
b --------------------------------------------------------|
g --8--10-7--3--5-------------------------///12-----------|
d --x--x--x--x--x-------------------------///-x-----------|
a --6--8--5--1--3-------------------------///10-----------|
d --------------------------------------------------------|

guitar 2
e -------------------------------------------------------------------|
b -------------------------------------------------------------------|
g -------------------------------------------------------------------|
d --5-5-5-5-5-5-5-5---------------------------------3-3-3-3-3-3-3-3--|
a --3-3-3-3-3-3-3-3-6-6-6-6-6-6-6-6-1-111-1-1-1-1-1-1-1-1-1-1-1-1-1--|
d ------------------6-6-6-6-6-6-6-6-1-111-1-1-1-1-1------------------|
    x x x   x x   x x   x x   x   x   xxx   x x   x x   x x   x   x


e --------------------------------------------------------------|
b --------------------------------------------------------------|
g ----------------------------------12-12/13-10-7-5-----///9----|
d --5-5-5-5-5-5-5-5------------------x--x--x-x--x-x-----///x----|
a --3-3-3-3-3-3-3-3-6-6-6-6-6-6-6-6-10-10/11-8--5-3-----///7----|
d ------------------6-6-6-6-6-6-6-6-----------------------------|
    x x x   x x   x x   x x   x   x

>>verse 2<<

both guitars
e ----------------------------------------------------|
b ----------------------------------------------------|
g ---5-----5-------------5-5-------5-----5-5----------|
d ---5-----5-------------5-5-------5-----5-5----------|
a -3-3-33333-----333333333-3-----3-3-33333-3-6-6-3-3--|
d -------------------------------------------6-6-3-3--| x2
   x   xxxx      xxxxxxxx        x   xxxx    x   x

e ----------------------------------------------------|
b ----------------------------------------------------|
g ----------------------------------------------------|
d ----------------------------------------------------|
a -3333333333333333333333333333333333333333336-6-3-3--|
d -------------------------------------------6-6-3-3--|
   xxxxxxxxxxxxxxxxxxxxxxxxxxxxxxxxxxxxxxxxxxx   x

e ----------------------------------------------------|
b ----------------------------------------------------|
g ---5-----5-------------5-5-------5-----5-5----------|
d ---5-----5-------------5-5-------5-----5-5----------|
a -3-3-33333-----333333333-3-----3-3-33333-3-6-6-3-3--|
d -------------------------------------------6-6-3-3--|
   x   xxxx      xxxxxxxx        x   xxxx    x   x


>>interlude<<

guitar 1
e --------------------------------------|
b --------------------------------------|
g -------------------------------4///7--|
d -3----------5-3-------6-5-3-----------|
a ---6-5-3--------6-5---------6---------|
d --------------------------------------|

guitar 2
e --------------------------------------|
b -------------------------------3///6--|
g -----------3----------5-3-------------|
d -6-5-3-------6-5-3--------6-5---------|
a -------6------------------------------|
d --------------------------------------|

>>chorus 2<<<

both guitars
e ---------------------------------------------------------------------------|
b ---------------------------------------------------------------------------|
g ---------------------------------------------------------------------------|
d -10-10-10-10-10-10-10-10-8-8-8-8-8-8-8-8-6-6-6-6-6-6-6-6-8-8-8-8-8-8-8-8---|
a -10-10-10-10-10-10-10-10-8-8-8-8-8-8-8-8-6-6-6-6-6-6-6-6-8-8-8-8-8-8-8-8---|
d -10-10-10-10-10-10-10-10-8-8-8-8-8-8-8-8-6-6-6-6-6-6-6-6-8-8-8-8-8-8-8-8---| x2

>>harmonised riff<<
[ Tab from: http://www.guitartabs.cc/tabs/a/avenged_sevenfold/second_heartbeat_tab_ver_5.html ]
guitar 1
e ------------------------------------------------------------------------------|
b -------------------------------------------------------------------------//11-|
g --7h8~----8-7~----7-8~----10b(12)r-8-7----7h8~----8-7~---7--------8--7-8------|
d -------10------8~------10--------------8~------10-----8~-------10-------------|
a ------------------------------------------------------------11----------------|
d ------------------------------------------------------------------------------|

(second time)
e -----------------|
b --//11-11b13~~~~-|

guitar 2 (plays >>chorus 2<< first)
e ----------------------------------------------------------------------10-11~~~-|
b --6h8~---8-6~---6-8----9b(11)r-8-6--------6h8---8-6-----6-------8-6-8----------|
g -------8-----7~-----8~---------------7--------8~-----7~-------8----------------|
d -----------------------------------------------------------10------------------|
a -------------------------------------------------------------------------------|
d -------------------------------------------------------------------------------|


>>chorus 3<<

both guitars
e -----------------------------------------------------------------------|
b -----------------------------------------------------------------------|
g -5555555555555555-3333333333333333----------33333333-5555555555555555--|
d -5555555555555555-3333333333333333-11111111-33333333-5555555555555555--|
a -3333333333333333-1111111111111111-11111111-11111111-3333333333333333--|
d -----------------------------------11111111----------------------------| x4

>>interlude<<

guitar 1
e ----------------------------------------|
b ----------------------------------------|
g -5----8-7-----5----7-8--12--10---13-----|
d -x----x-x-----x----x-x---x---x----x-----|
a -3----6-5-----3----5-6--10---8---11-----|
d ----------------------------------------|

guitar 2
e ----------------------------------------|
b ----------------------------------------|
g -5----5-3-------------------------------|
d -5----5-3-----3-----5-6---------8-------|
a -3----3-1-----3-----5-6---------8-------|
d --------------3-----5-6---------8-------|

>>heavy verse<<<

both guitars
e -------------------------------------|
b -------------------------------------|
g -------------------------------------|
d -10\\\\-1-0-1-3-55-------33--44------|
a -10\\\\-1-0-1-3-55-------11--22------|
d -10\\\\-1-0-1-3-55-------------------| x4

guitar 1
e --------------------------------------------------------------|
b --------------------------------------------------------------|
g --------------------------------------------------------------|
d -0---0-1-0-1-0-0---------------0---0-1-0-1-0-0----------------|
a -0---0-1-0-1-0-0--000000000000-0---0-1-0-1-0-0--000044443333--|
d -0---0-1-0-1-0-0--000000000000-0---0-1-0-1-0-0--000044443333--| x2
                    xxxxxxxxxxxx                  xxxxxxxxxxxx

guitar 2
e --------------------------------------------------------------|
b --------------------------------------------------------------|
g -12b(13)~~~~~~~~~~~~~~~~~~~~~~~12b(13)~~~~~~~~~~~~~~~~~~~~~~~~
d --------------------------------------------------------------|
a --------------------------------------------------------------|
d --------------------------------------------------------------|


e -12b(13)~~~~~~~~~~~~~~~~~~~~~~~12b(13)~~~~~~~~~~~~~~~~~~~~~~~~
b --------------------------------------------------------------|
g --------------------------------------------------------------|
d --------------------------------------------------------------|
a --------------------------------------------------------------|
d --------------------------------------------------------------|

>>interlude<<

guitar 1
e --------------------------|
b --------------------------|
g ------------2-3-----4-----|
d -0----0-3-5-2-3-----4-----|
a -0----0-3-5-0-1-----2-----|
d -0----0-3-5---------------|

guitar 2
e --------------------------|
b --------------------------|
g -7----7-5-5-5-3-----4-----|
d -x----x-x-x-x-x-----x-----|
a -5----5-3-3-3-1-----2-----|
d --------------------------|

guitar 3
e ---------------------------|
b /15~~~~-----//11~~//12~~~~-|
g ---------------------------|
d ---------------------------|
a ---------------------------|
d ---------------------------|

(play >>intro<< but about half speed)

(play >>chorus 3<< x2)

>>harmonised riff 2<<

guitar 1
e ------------------------------------------------------------------------------|
b -------------------------------------------------------------------------//11-|
g --7h8~----8-7~----7-8~----10b(12)r-8-7----7h8~----8-7~---7--------8--7-8------|
d -------10------8~------10--------------8~------10-----8~-------10-------------|
a ------------------------------------------------------------11----------------|
d ------------------------------------------------------------------------------|

e ----------------------------------------------------------------------------------|
b -------------------------------------------------------------------11--11b(13)~~~-|
g -7h8------8-7---7------------------------7----8-7-8-10----12-10-12----------------|
d ------10------8-------------8----10-8-10------------------------------------------|
a -------------------11-10-11-------------------------------------------------------|
d ----------------------------------------------------------------------------------|


guitar 2 (plays >>chorus 2<< first)
e ----------------------------------------------------------------------//10----|
b --6h8~---8-6~---6-8----9b(11)r-8-6--------6h8---8-6-----6-------8-6-8---------|
g -------8-----7~-----8~---------------7--------8~-----7~-------8---------------|
d -----------------------------------------------------------10-----------------|
a ------------------------------------------------------------------------------|
d ------------------------------------------------------------------------------|

e ------------------------------------------------------------------10--10b(11)~~~-|
b --6h8---8-6---6--------------------------------------9----11-9-11----------------|
g ------8-----7------------7-----8-7-8-10-----12-10-12-----------------------------|
d -----------------10-8-10---------------------------------------------------------|
a ---------------------------------------------------------------------------------|
d ---------------------------------------------------------------------------------|

(play >>chorus 3<< x4)

>>solo

E------------------------10-------------------13-13h15-13-------------------------------|
B-13------------------------11----------13-16-------------16-13-13h15-13-11-13----------|
G----12~~~------------13-------10~~--15----------------------------------------12b1/4~~-|
D------------13-12-13-------------------------------------------------------------------|
A---------------------------------------------------------------------------------------|
D---------------------------------------------------------------------------------------|

E-------------------------------------------------------10-------------------------13-|
B-------------------------------13-------------------------11-------------13-15h16----|
G----------------------------------12----------------12-------10~~--12h13-------------|
D-12h13-12----------------------------13-12-13-12-13----------------------------------|
A----------13h15-13s\-13h14h15--------------------------------------------------------|
D-------------------------------------------------------------------------------------|

E-13h15-13-------15s/18-16-15---------------------------------------|
B----------16-13--------------16-13~~--13h15h16-15b16~~--16p15------|
G--------------------------------------------------------------17s\-|
D-------------------------------------------------------------------|
A-------------------------------------------------------------------|
D-------------------------------------------------------------------|

E-10h11p13----------10h11h13----------------11~~--|
B----------10h11h13----------10h11h13-----11------|
G---------------------------------------12--------|
D-------------------------------------13----------|
A-------------------------------------------------|
D-------------------------------------------------|

E----------------------------------------------10h11h13-11-----|
B--------------------------------------------------------------|
G----------10h12h13----------10h12h13----------------------10~-|
D-10h12h13----------10h12h13----------10h12h13-----------------|
A--------------------------------------------------------------|
D--------------------------------------------------------------|

E-18p16p15------------------------------------------------------------------------------|
B----------18p16p15-16p15p13------------------------------------------------------------|
G----------------------------17p15p13-15p13p12------------------------------------------|
D----------------------------------------------17p15p13-15p13p12------------------------|
A----------------------------------------------------------------17p15p13-15p13p12-15~~-|
D---------------------------------------------------------------------------------------|

E-------------------10-11-|
B----------11-------------|
G-------------12-13-------|
D-10-12-13----------------|
A-------------------------|
D-------------------------|

E-------15h20p15h20p15-| x4
B----16----------------|
G-17-------------------|
D----------------------|
A----------------------|
D----------------------|

E-22-22-22-18-22-22-22-18-22-22-22-18-22-22-22-18-22-22-22-22b24-|
B----------------------------------------------------------------|
G----------------------------------------------------------------|
D----------------------------------------------------------------|
A----------------------------------------------------------------|
D----------------------------------------------------------------|

E----------------------------------------------15h16h18-18s/20~~~~-|
B-------------------------------------13h15h16---------------------|
G----------10h12h13----------12h13h15------------------------------|
D-10h12h13----------12h13h15---------------------------------------|
A------------------------------------------------------------------|
D------------------------------------------------------------------|


guitar 2
e ------------------------------------------------------------------------|
b ------------------------------------------------------------------------|
g -5----------------3--------------------------3--------5-----------------|
d -5----------------3----------------1---------3--------5-----------------|
a -3-33333333333333-1-11111111111111-1---------1-111111-3-33333333333333--|
d -----------------------------------1-111111-----------------------------| x2
     xxxxxxxxxxxxxx   xxxxxxxxxxxxxx   xxxxxx    xxxxxx   xxxxxxxxxxxxxx

e -----------------------------------------------------------------------|
b -----------------------------------------------------------------------|
g -5555555555555555-3333333333333333----------33333333-5555555555555555--|
d -5555555555555555-3333333333333333-11111111-33333333-5555555555555555--|
a -3333333333333333-1111111111111111-11111111-11111111-3333333333333333--|
d -----------------------------------11111111----------------------------|

e -----------------------------------------------------------------------|
b -----------------------------------------------------------------------|
g -5555555555555555-3333333333333333---------3---------5-----------------|
d -5555555555555555-3333333333333333-1-------3---------5-----------------|
a -3333333333333333-1111111111111111-1-------1---------3-----------------|
d -----------------------------------1-----------------------------------|
Comments