Avenged Sevenfold - Remenissions Chords & Tabs

 

Remenissions Chords & Tabs

Avenged Sevenfold Chords & Tabs

Version: 3 Type: Tab 0 ratings
1 star 2 stars 3 stars 4 stars 5 stars
comments

Remenissions Tab

   
Remenissions
Artist : Avenged Sevenfold
DROP-D Tuning


Key:
::     = Palm mute	
/      = Slide up or down
(#)    = Soft note




  INTTR0   Distortion on!
e|--------------------------------------------------------------------------|
B|--------------------------------------------------------------------------|
G|--------------------------------------------------------------------------|
D|-0------------0----------00000-------0------------------------------------|
A|-0-------5--1------------00000--5--1--------------------------------------|
D|-0-3v2-0--------8-7-5-3--00000--------------------------------------------|

|-------------|-------------|-------------|------------|
|-------------|-------------|-------------|------------|
|-------------|-------------|-------------|------------|
|----------7--|-5-----------|----------5--|-------7----|
|-5--7--8-----|----8--7--5--|-4--5--7-----|-4--0-------|
|-------------|-------------|-------------|------------|

|-------------|-------------|-------------|------|
|-------------|-------------|-------------|------|
|----------3--|-------------|-------------|------|
|----0--3-----|-3--0-----0--|-------------|-5----|
|-1-----------|-------1-----|-0--4--7--0--|------|
|-------------|-------------|-------------|------|

|-------------|-------------|-------------|------------|
|-------------|-------------|-------------|------------|
|-------------|-------------|-------------|------------|
|----------7--|-5-----------|----------5--|-------7----|
|-5--7--8-----|----8--7--5--|-4--5--7-----|-4--0-------|
|-------------|-------------|-------------|------------|

|-------------|-------------|-------------|------|
|-------------|-------------|-------------|------|
|----------3--|-------------|-------------|------|
|----0--3-----|-3--0-----0--|-------------|-5----|
|-1-----------|-------1-----|-0--4--7--0--|------|
|-------------|-------------|-------------|------|

|-------------|------------|-------------|------------|
|-------------|------------|-------------|------------|
|--------7----|-(7)--------|--------7----|-(7)--------|
|-0-0--0-7----|-(7)--------|-0-0--0-8----|-(8)--------|
|-0-0--0------|------------|-0-0--0------|------------|
|-0-0--0------|------------|-0-0--0------|------------|


|-------------|------------|-5----(5)----|------|
|-------------|------------|-5----(5)----|------|
|--------6----|-(6)--------|-7----(7)----|------|
|-0-0--0-8----|-(8)--------|-7----(7)----|------|
|-0-0--0------|------------|-------------|------|
|-0-0--0------|------------|-------------|------|




  Verse
e|--------------------------------------------------------------------|
B|--------------------------------------------------------------------|
G|-------------------------3-7-3-7------------------------------------|
D|-0----3p2---0-0----3p2---3-7-3-7--2-5-3-2-0-2---------8--5---10--7--| x2
A|-0-00-3p2-0-0-0-00-3p2-0-1/5-1/5--3-----------3-------8--5---10--7--|
D|-0-00-3p2-0-0-0-00-3p2-0------------------------------8--5---10--7--|


e|--------------------------|
B|--------------------------|
G|--------------------------|
D|-0----0----0----0---------|
A|-0----0----0----0---------|
D|-0----0----0----0---------|

e|--------------------------------------------------------------------|
B|--------------------------------------------------------------------|
G|-------------------------3-7-3-7------------------------------------|
D|-0----3p2---0-0----3p2---3-7-3-7--2-5-3-2-0-2---------8--5---10--7--| x2
A|-0-00-3p2-0-0-0-00-3p2-0-1/5-1/5--3-----------3-------8--5---10--7--|
D|-0-00-3p2-0-0-0-00-3p2-0------------------------------8--5---10--7--|


e|-11-12------------------|
B|-15-16------------------|
G|------------------------|
D|------------------------|   x4
A|-------00-0-000-000-----|
D|-------00-0-000-000-----|
         :: : ::: :::

e|-----------------------------------------------------------------------|
B|-----------------------------------------------------------------------|
G|-----------------------------------------------------------------------|
D|--0---------8-------5-------10-----------------------------------------| x2
A|--0---------8-------5-------10-----------------------------------------|
D|--0---------8-------5-------10-----------------------------------------|


   CHORUS   (Clean)
e|-5-6-5-----------------------6-------------8------------------------------|
B|-------6---6--8--10-11-8-----8--10--11---8---8-----6----------------------|
G|---------------------------------------9-------9-7---9------5/7-----------|
D|-------------------------------------------------------10-----------------|
A|--------------------------------------------------------------------------|
D|--------------------------------------------------------------------------|

e|------------8----------------(8)------------------------------------------|
B|----8---8-----10-----------8-----8----------------------------------------|
G|------9----------9-----7-----------------5--------------------------------|
D|-7--7--------------5-----------------5------------------------------------|
A|--------------------------------------------------------------------------|
D|--------------------------------------------------------------------------|

e|--------------------10--12--13-10------------10--12--13-12----------------|
B|---------------------6---8--10--6-----8-------6---8--10--8--------5-------|
G|-5/7--/9--/10-7---------------------5-----5/--------------------7---7-----|
D|--------------------------------------------------------------5-----------|
A|--------------------------------------------------------------------------|
D|--------------------------------------------------------------------------|

e|--------------------------------------------------------------------------|
B|------------------------------------------------10---12-------------------|
G|-10p9p7------7---9---10---9---7---9---10---12-------------9-10-9----------|
D|--------10----------------------------------------------------------------|
A|--------------------------------------------------------------------------|
D|--------------------------------------------------------------------------|

e|---------10---------------------------------------------------------------|
B|------10------6-----------------------------------------------------------|
G|-9-12-------------9---6---7-----------------------------------------------|
D|--------------------------------------------------------------------------|
A|--------------------------------------------------------------------------|
D|--------------------------------------------------------------------------|

[ Tab from: http://www.guitartabs.cc/tabs/a/avenged_sevenfold/remenissions_tab_ver_3.html ]
	
   Heavy Distortion again
e|--------------------------------------------------------------------------|
B|--------------------------------------------------------------------------|
G|--------------------------------------------------------------------------|
D|0-00000000--5---55555555--10--1010101010101010---3--3333--7--7777--------|
A|0--00000000--5---55555555--10--1010101010101010---3--3333--7--7777--------|
D|0--00000000--5---55555555--10--1010101010101010---3--3333--7--7777--------|
     ::::::::     :::::::::      ::::::::::::::::      ::::     ::::
    
e|--------------------------------------------------------------------------|
B|--------------------------------------------------------------------------|
G|--------------------------------------------------------------------------|
D|-0-00000000--5--55555555---10--1010101010101010----8-8/10-10--------------|
A|-0-00000000--5--55555555---10--1010101010101010----8-8/10-10--------------|
D|-0-00000000--5--55555555---10--1010101010101010----8-8/10-10--------------|
     ::::::::     ::::::::       ::::::::::::::::   

e|-------------------------|------------------------------------------------|
B|-------------------------|------------------------------------------------|
G|--77-77-77-77------------|--------------3----5----------------------------|
D|--77-77-77-77--88---1010-|-00-2-3-2-0---3----5----3-3-----------------x3--|
A|--55-55-55-55--88---1010-|------------0-1----3----3-3---------------------|
D|---------------88---1010-|------------------------3-2---------------------|

e|------------------------------|-------------------------------------------|
B|------------------------------|-------------------------------------------|
G|--------------3---5--5-2-5-7--|--7--9-10--9---3---7-10-15---7-9--14-------|
D|-00-2-3-2-0---3---5--5-2-5-7--|----------------------------------------x2-|
A|------------0-1---3--3-0-3-5--|--5--7--8--7---1---5--8-13---5-7--12-------|
D|------------------------------|-------------------------------------------|


e|-----------------|---------------------------------|
B|-----------------|---------------------------------|
G|--9-10/-7---9-6--|---------------------------------|
D|-----------------|--0----0--0----0-----------------|
A|--7--8/-5---7-4--|--0-00-0--0-00-0-----------------|
D|-----------------|--0-00-0--0-00-0-----------------|
                      ::     ::

e|-----1---------------1-------------------1------------1-----|
B|-------3-2-------------3-2----------------3-2-----------3-2-|      
G|------------------------------------------------------------|   x2
D|-0-----------------0-----------------0-------------0--------|
A|-0--------------00-0-----------------0----------00-0--------|
D|-0-0------------00-0-----------------0----------00-0--------|
                  ::                              ::


e|--------------|
B|--------------|
G|--------------|   x4
D|-0-1-2-3------|
A|-0-1-2-3------|
D|-0-1-2-3------|




Solo! Guitar 1!
e|-5-5p3-1-3-5-1---/6-6p5-3-5-6-3---/8-8p6-5-6-8-5---8-6-5-6-5-3-5-3-1-0----|
B|--------------------------------------------------------------------------|
G|--------------------------x2----------------------------------------------|
D|--------------------------------------------------------------------------|
A|--------------------------------------------------------------------------|
D|--------------------------------------------------------------------------|


During the solo Guitar 2 plays this!
e|--------------------------------------------------------|
B|--------------------------------------------------------|
G|--------------------------------------------------------|
D|---0-0------0-0-0-0-0-0-8-8------8-8-8-8-8-8-10-10------|
A|---0-0------0-0-0-0-0-0-8-8------8-8-8-8-8-8-10-10------|
D|---0-0------0-0-0-0-0-0-8-8------8-8-8-8-8-8-10-10------|

e|--------------------------------------------------------|
B|--------------------------------------------------------|
G|--------------------------------------------------------|   x2
D|---10-10-10-10-10-10-3-3-3-3-3-3-3-3-2-2-2-2-2-2-2-2----|
A|---10-10-10-10-10-10-3-3-3-3-3-3-3-3-2-2-2-2-2-2-2-2----|
D|---10-10-10-10-10-10-3-3-3-3-3-3-3-3-2-2-2-2-2-2-2-2----|		




  CHORUS   (Clean)
e|-5-6-5-----------------------6-------------8------------------------------|
B|-------6---6--8--10-11-8-----8--10--11---8---8-----6----------------------|
G|---------------------------------------9-------9-7---9------5/7-----------|
D|-------------------------------------------------------10-----------------|
A|--------------------------------------------------------------------------|
D|--------------------------------------------------------------------------|


e|------------8----------------(8)------------------------------------------|
B|----8---8-----10-----------8-----8----------------------------------------|
G|------9----------9-----7-----------------5--------------------------------|
D|-7--7--------------5-----------------5------------------------------------|
A|--------------------------------------------------------------------------|
D|--------------------------------------------------------------------------|


e|--------------------10--12--13-10------------10--12--13-12----------------|
B|---------------------6---8--10--6-----8-------6---8--10--8--------5-------|
G|-5/7--/9--/10-7---------------------5-----5/--------------------7---7-----|
D|--------------------------------------------------------------5-----------|
A|--------------------------------------------------------------------------|
D|--------------------------------------------------------------------------|


e|--------------------------------------------------------------------------|
B|------------------------------------------------10---12-------------------|
G|-10p9p7------7---9---10---9---7---9---10---12-------------9-10-9----------|
D|--------10----------------------------------------------------------------|
A|--------------------------------------------------------------------------|
D|--------------------------------------------------------------------------|


e|---------10---------------------------------------------------------------|
B|------10------6-----------------------------------------------------------|
G|-9-12-------------9---6---7-----------------------------------------------|
D|--------------------------------------------------------------------------|
A|--------------------------------------------------------------------------|
D|--------------------------------------------------------------------------|


Distortion! Guitar 2 Plays the clean sounding riffs above!
e|--------------------------------------------------------------------------|
B|--------------------------------------------------------------------------|
G|--------------------------------------------------------------------------|
D|--0-----5-----10-----3---7-----0-----5-----10----8--10--------------------|
A|--0-----5-----10-----3---7-----0-----5-----10----8--10--------------------|
D|--0-----5-----10-----3---7-----0-----5-----10----8--10--------------------|


e|---------------------------------------------|----------------------------|
B|---------------------------------------------|----------------------------|
G|-14--17/15-15/14-14/12-10/-12-10/-9-10-14----|----------------------------|
D|------------------------------------------x2-|--88888888-333333333-0---0--|
A|-12--15-13-13-12-12-10--8/-10--8/-7--8-12----|--88888888-333333333-0---0--|
D|---------------------------------------------|----------------------------|

Fast Palm Mutes!							

e|------|
B|------|
G|------|
D|-0000-|
A|-0000-|
D|-0000-|
   ::::
	              
Questions? Comments? Complaints? E-mail me!
I3irthDefect@aol.com
Comments