Avenged Sevenfold - Radiant Eclipse Chords & Tabs

 

Radiant Eclipse Chords & Tabs

Avenged Sevenfold Chords & Tabs

Version: 1 Type: Bass Tab 0 ratings
1 star 2 stars 3 stars 4 stars 5 stars
comments

Radiant Eclipse Bass Tab

   
Band- Avenged Sevenfold
Song- Radiant Eclipse

Intro (0:15):
   .  .  .         .  .  .    .  .  .
G|------------------------------------------|
D|------------------------------------------|
A|------------------------------------------|
D|-10-10-10--------10-10-10---10-10-10-11~--|
[x2]

   .  .  .          .  .  .    .  .  .
G|-------------------------------------------|
D|-------------------------------------------|
A|-------------------------------------------|
D|-10-10-10-10~-----10-10-10---10-10-10-11~--|

   .  .  .         .  .  .    .  .  .
G|------------------------------------------|
D|------------------------------------------|
A|------------------------------------------|
D|-10-10-10--------10-10-10---10-10-10-11~--|

pm
G|---------------------------------------------------------|
D|---------------------------------------------------------|
A|---------------------------------------------------------|
D|-101010-10-10-10-10-101010-101010-10-10-1111111111111111-|
[x7]

pm
G|---------------------------------------------------|
D|---------------------------------------------------|
A|---------------------------------------------------|
D|-101010-10-10-10-10-10-10-10-10-10-10-10-10-10-10--|

pm
G|---------------------------------------------------|
D|---------------------------------------------------|
A|---------------------------------------------------|
D|-101010---------101010-101010-----1111111111111111-|
[x4]

Verse (1:34):
                           . . . .   . . . .
G|---------------------------------------------|
D|---------------------------------------------|
A|-------------8--9--10------------------------|
D|-10--13--10-----------10-10101010--10101010--|
[x7]

G|----------------------|
D|----------------------|
A|-------------8--9--10-|
D|-10--13--10-----------|
[ Tab from: http://www.guitartabs.cc/tabs/a/avenged_sevenfold/radiant_eclipse_btab.html ]
Chorus (2:03):
[x2]
G|----------------------------------------------|
D|----------------------------------------------|
A|----------------------------------------------|
D|-10-10-10-12-12-12-12-12-8-8-8-10-10-10-10-10-|

G|-----------------------------------------|
D|-----------------------------------------|
A|-----------------------------------------|
D|-6-6-6-8-8-8-8-8-10-10-10-12-12-12-12-12-|

Verse Two (2:18):
      .  .   .        . . . . .    . .    . . . .
G|-------------------------------------------------|
D|-------------------------------------------------|
A|-------------------------------8------9----------|
D|-13-10-10--10-10----1010101010---1010---10101010-|
[x4]
      .  .   .         . . . . .
G|-------------------------------------------|
D|-------------------------------------------|
A|--------------------------------8---9---10-|
D|-13-10-10--10-10~----1010101010------------|
[x3]

G|---------------------------|
D|---------------------------|
A|---------------------------|
D|-101010-10-10-10-10-101010-|

                           . . . .   . . . .
G|---------------------------------------------|
D|---------------------------------------------|
A|-------------8--9--10------------------------|
D|-10--13--10-----------10-10101010--10101010--|
[x5]

Transition (3:01):
G|--------------------|
D|--------------------|
A|--------------------|
D|-13-10--8--5--6~----|
[x4]

Bridge (3:16):
[x4]
G|-------------------------------------------------|
D|-------------------------------------------------|
A|-------------------------------------------------|
D|-10-10-10-10-10-10-10-10-10-10-10-10-10-10-10-10-|

G|-----------------------------------------|
D|-----------------------------------------|
A|-13-13-13-13-13-13-13-13-8-8-8-8-8-8-8-8-|
D|-----------------------------------------|

Breakdown II (3:47):
G|----------------------------------------|
D|----------------------------------------|
A|----9-8----7-9----10-9----9-8----6-4~---|
D|-10-----10-----10------10-----10--------|
[x8]

Verse Two (4:17)

Transition (4:48)

Bridge [x2] (5:03)
Comments