Avenged Sevenfold - Missing In Action Chords & Tabs

 

Missing In Action Chords & Tabs

Avenged Sevenfold Chords & Tabs

Version: 1 Type: Tab 0 ratings
1 star 2 stars 3 stars 4 stars 5 stars
comments

Missing In Action Tab

   
Band:Avenged Sevenfold
Song: Missing In Action
Tuning D a D g b e
Guitar One

E--------5--------------------------------------------|
B----6-----6-----3---5-6------9----10-9---------------|
G------7-----7/3---3-----7-10---10------10------------|
D-----------------------------------------------------|
A--5--------------------------------------------------|
D-----------------------------------------------------|
[ Tab from: http://www.guitartabs.cc/tabs/a/avenged_sevenfold/missing_in_action_tab.html ]
E-----------------------------------------------------|
B-----------------------------------------------------|
G--3-2---6-3------------------------------------------|
D------3-----3-0--------------------------------------|
A-----------------------------------------------------|
D-----------------------------------------------------|

Guitar Two
E-----------10----------------------------------------|
B-----10-------10----------------10-----------10------|
G--10----10-------10----10----12----10-9-12-9----12-7-|
D--------------------12----12-------------------------|
A-----------------------------------------------------|
D-----------------------------------------------------|

E------------------------------------------------------|
B------------------------------------------------------|
G--5---9-6---------------------------------------------|
D----7-----7-------------------------------------------|
A------------8-----------------------------------------|
D------------------------------------------------------|
Comments