Avenged Sevenfold - Forgotten Faces Chords & Tabs

 

Forgotten Faces Chords & Tabs

Avenged Sevenfold Chords & Tabs

Version: 1 Type: Bass Tab 0 ratings
1 star 2 stars 3 stars 4 stars 5 stars
comments

Forgotten Faces Bass Tab

   
Drop D tuning

G|---------------------------|
D|---------------------------|
A|-----5-----56-----3-----68-| x4
D|-0000--0000---0000--0000---|

G|---------------------------|
D|---------------------------|
A|------------------3-----68-|
D|-0~-----------0000--0000---|

G|---------------------------|
D|---------------------------|
A|-----5-----56-----3-----68-| x3
D|-0000--0000---0000--0000---|

G|-----|
D|-----|
A|-555-|
D|-----|

G|---------------------------------|
D|---------------------------------|
A|-55555535-33333333-66668868-5555-| x3
D|---------------------------------|

G|--------------------------------------------------------------|
D|--------------------------------------------------------------|
A|-55555535-33333333-66668868-5\-------------5\-------------555-|
D|------------------------------0--1~--3~-5~---0--1~--3~-5~-----|

G|---------------------------------|
D|---------------------------------|
A|-55555535-33333333-66668868-5555-| x3
D|---------------------------------|

G|----------------------------|
D|----------------------------|
A|-55555535-33333333-66668868-|
D|----------------------------|
[ Tab from: http://www.guitartabs.cc/tabs/a/avenged_sevenfold/forgotten_faces_btab.html ]
G|-------------------------------------------------|
D|-------------------------------------------------|
A|-5-7-8-3-8-7-----0457540-5-7-8-3-8-7-------------| x2
D|-------------5~----------------------5~--7-3-5-7-|

G|-------------------------|
D|-------------------------|
A|-5-7-8-3-8-7-----0754540-|
D|-------------5~----------|

G|----------------------------|
D|----------------------------|
A|----------------------------| x4
D|-00000~-55555~-33333~-88330-|
PM xxxx   xxxx   xxxx

G|-------------------------------------|
D|-------------------------------------|
A|-------------------------------------| x4
D|-00000000-00000000-33333333-33333333-|

G|--------------------------|
D|--------------------------|
A|--------------------------| x3
D|-0--00-0-00003--33-3-3333-|

G|--------------------------------|
D|--------------------------------|
A|--------------------------------|
D|-0--00-0-0000-33333333-33333333-|

G|---------------------------------------------|
D|---------------------------------------------| 
A|---------------------------------------------| x2
D|-88888888-88888888-00000000-1010101010101010-|
                              ^^^^^^^^^^^^^^^^

G|----------------------------------------|
D|----------------------------------------|
A|-----------------5\---5\---5\---5\------|
D|-8888-8-88881085---0----0----0----0-037-|
              ^^

G|-------------------------------------|
D|-------------------------------------|
A|-5\------5\------5\------5\------5\--|
D|---0-037---0-037---0-037---0-037---0-|
Comments