Avenged Sevenfold - Dear God Intro Chords & Tabs

 

Avenged Sevenfold Chords & Tabs

Version: 1 Type: Tab 0 ratings
1 star 2 stars 3 stars 4 stars 5 stars
comments

Dear God Intro Tab

tabbed by Trent Seymour

D|---3---------|-----2--------------0-|--2-2-----------------------|
A|---3-0h1p0---|-----3--------------0-|--3---3-------------1h3p1---|
F|---0------2--|---2---0h2p0--------0-|--4-----4---------0---------|
C|---0---------|-0----------2-4-5/0-2-|--4-------4-----2-----------|
G|---2---------|--------------------2-|--2-----------3-------------|
D|-3-3---------|--------------------0-|--x-------------------------|

[ Tab from: http://www.guitartabs.cc/tabs/a/avenged_sevenfold/dear_god_intro_tab.html ]
D|-----------3---|-2-2-------------------------|
A|---------0---0-|-3-3-------------------------|
F|-------0-------|-2-2------0h2p0---0-2-0------|
C|-----0---------|-0-0-0-2-4-------4-------4-2-|
G|---2-----------|-----------------------------|
D|-3-------------|-----------------------------|


D|---3---------|-----2--------------0-|--2-2-----------------------|
A|---3-0h1p0---|-----3--------------0-|--3---3-------------1h3p1---|
F|---0------2--|---2---0h2p0--------0-|--4-----4---------0---------|
C|---0---------|-0----------2-4-5/0-2-|--4-------4-----2-----------|
G|---2---------|--------------------2-|--2-----------3-------------|
D|-3-3---------|--------------------0-|--x-------------------------|


D|-----------3---|-2-2------------|
A|---------0---0-|-3-3------------|
F|-------0-------|-2-2------0h2p0-|
C|-----0---------|-0-0-0-2-4------|
G|---2-----------|----------------|
D|-3-------------|----------------|

there thats it


Comments